swlabr
chord
E7sus4/6
-0----|
-0----|
-2----|
-0----|
-4----|
-0----|
intro
gtr1
E G A G E D E
-------------------------------------0-|
-0-----------------------0-----0--3--0-|
-1-----4-----6-----4-----1-----1--2--1-|
-2-----5-----7-----5-----2-----2--0--2-|
-2-----5-----7-----5-----2-----2-----2-|
-0--0--3--3--5--0--3--0-----0--0-----0-|
gtr2
---------------------------------------------------|
---------------------------------------------------|
--------12-12-14-~--14-12(13)----------------------|
-14--14-----------------------14-12-14~~-12~~-14~~-|
---------------------------------------------------|
---------------------------------------------------|
verse
riff 1
A G E
-----------------|
-14--12----------|
-14--12--13~~----|
---------14~~----|
-----------------|
-----------------|
E E7sus E A G E E E7sus E A G E
Coming to me in the morning, leaving me at night.
E E7sus E A G E E E7sus (intro riff 1x)
Coming to me in the morning, leaving me alone.
C
You've got that rainbow feel
----------------|
----------------|
-14(16)14p12----|
----------------|
-------------14-|
----------------|
B
but the rainbow has a beard.
(intro riff 1x)
E E7sus E A G E E E7sus E A G E
Running to me a-cryin' when he throws you out.
E E7sus E A G E E E7sus (intro riff 1x)
Running to me a-cryin', on your own again.
C
You've got that pure feel, such good responses,
------------12--------------------------------------------|
--15(17)~~-----15-----------------------------------------|
------------------14(16)-14-12-14(16)~~----14(16)14p12----|
----------------------------------------------------------|
-------------------------------------------------------14-|
----------------------------------------------------------|
B
But the picture has a mustache.
(Intro riff 1x)
C# E7#9
You're coming to me with that soulful look on your face,
------------------------------------|
-17(20)--17(20)17---17-15-17-15~-17-|
------------------------------------|
------------------------------------|
------------------------------------|
------------------------------------|
C F C F C C B
Coming looking like you've never ever done one wrong thing.
---------------------------------------------|
---------------------------------------------|
------9----9--9--11--9-----9--11(14)--11(14)-|
-9/11---11--------------11-------------------|
---------------------------------------------|
---------------------------------------------|
solo
------------------------------------------------------------|
----------14---------------------15(17)~--17(20)-17(20)17---|
-16(18)~-----16(18)~--16-14--13-----------------------------|
------------------------------------------------------------|
------------------------------------------------------------|
------------------------------------------------------------|
--------------------------------------------------------|
----15-17-15~~-------------------10-12------------------|
-16-----------------9-11--11(13)-------11(13)-9-11-9----|
----------------/11----------------------------------11-|
--------------------------------------------------------|
--------------------------------------------------------|
--------------------------------------|
-15(17)15-12--------------------------|
-------------14(16)-14-12-------14-12-|
--------------------------14-14-------|
--------------------------------------|
--------------------------------------|
(Intro riff x1)
C# E7#9
You're coming to me with that soulful look on your face.
--------------------------|
-17(20)17--17-15-17-15-17-|
--------------------------|
--------------------------|
--------------------------|
--------------------------|
(play C and F at 8th fret position)
C F C F C C B
You're coming looking like you've never ever done one wrong thing.
----------------------------------------------|
----------------------------------------------|
----12(14)-12(14)-12-9-11(13)11-9--11----9----|
-11-----------------------------------11---11-|
----------------------------------------------|
----------------------------------------------|
E E7sus E A G E E E7sus E A G E
So many fantastic colors; I feel in a wonderland.
E E7sus E A G E E E7sus (intro riff 1x)
Many fantastic colors makes me feel so good.
C
You've got that pure feel,
-----------------------------------------|
-15(17)15p12----12-15(17)-15p12----12~~~-|
-------------14-----------------14-------|
-----------------------------------------|
-----------------------------------------|
-----------------------------------------|
such good responses.
-----------------------------------------|
--------15-------------------------------|
-14(16)----14h16-14(16)-14-12-14-12~~----|
-----------------------------------------|
-----------------------------------------|
-----------------------------------------|
B
You've got that rainbow feel
-----------------------|
-----------------------|
-14(16)14-12(13)-------|
-----------------14----|
--------------------14-|
-----------------------|
but the rainbow has a beard.
(intro riff x1)
G A
-----------------|
-----------------|
--------12-12-14-|
-/14-14----------|
-----------------|
-----------------|




Ваше мнение



Капча