------------------------------------------------
Im So Glad - Cream
------------------------------------------------
Tabbed by:Doug
e-mail:private

Tuning: e,a,d,g,b,e

e|-------------0-----0--------------0-----0----------0-----0--------0--|
B|---------------0-----0--------------0-----0----------0-----0------0--|
G|-1-2-3--4-----------------4--3----------------3--2-------------2-----|
D|------------------------------------------------------------------1--|
A|-2-3-4--5--5-----5------5---4--4-----4-----4---3-----3-----3---2--|
E|---------------------------------------------------------------------|

he just plays this over and over again




Ваше мнение



Капча