#----------------------------------PLEASE NOTE---------------------------------#
#This file is the author's own work and represents their interpretation of the #
#song. You may only use this file for private study, scholarship, or research. #
#------------------------------------------------------------------------------#
Cream
I Feel Free
by Brian S
Eric Clapton is god
this is is cut time
E7#9 these are the vocal notes
e---------------------^-----^------^-----^----------------------|
b--8~~-----------^-----------------------------^----------------|
g--7~~----^-------------------------------------------^---------|
d--6~~----2----2----2----2----2----2----2-----2----2--2-----2---|
a--7~~----------------------------------------------------------|
e---------------------------------------------------------------|
bomp bomp bomp bomp bomp bomp bomp bomp bomp bomp bomp
Verse starts
B D E E
e--------------------------------------------------------------|
b------------------------9-------------------------------------|
g---4---7---9------------9--9--9-9-9-9--9-9-9-9-9-9------------|
d---4---7---9------------9--9--9-9-9-9--9-9-9-9-9-9------------|
a---2---5---7------------7--7--7-7-7-7--7-7-7-7-7-7------------|
e--------------------------------------------------------------|
Freeeee when i dance with you....
D/E
e-----------------------------|
b--7--7-7-7-7-7-7--7-7--7-7---|
g--7--7-7-7-7-7-7--7-7--7-7---|
d--7--7-7-7-7-7-7--7-7--7-7---|
a--5--5-5-5-5-5-5--5-5--5-5---|
e-----------------------------|
Chorus :
C Bb A D
I could walk down the street, when no ones there.......is one huge crowd.
The lead solo part : ///hard to hear
e---------------------------------------------------------------|
b----------------------15b-12-----------------------------------|
g--14b~~~~~~-14p12------------14~~~---12b~~~-12-10-12b~~~~~-----|
d------------------14-------------------------------------------|
a---------------------------------------------------------------|
e---------------------------------------------------------------|
later ...
e----------15-17b~~~p15-----------------------------------------|
b--15b~-17--------------17---15---------------------------------|
g--------------------------------14b~~~--14-12-10-12-14b~~~~----|
d---------------------------------------------------------------|
a---------------------------------------------------------------|
e---------------------------------------------------------------|




Ваше мнение



Капча