Doing That Scrapyard Thing - Cream

Piano Intro:
> >
e:-7--7--7--8--10----7----|-5--5--5--6--8--------2-|----2--2--3--5--2--3--5-|
B:-8--8--8--10-12----8----|-6--6--6--8--10-------3-|----3--3--5--7--3--5--6-|
G:-7--7--7--8--10----7----|-5--5--5--7--8--------2-|----2--2--4--5--2--4--5-|
D:------------------------|------------------------|------------------------|
A:------------------------|------------------------|------------------------|
E:------------------------|------------------------|------------------------|

C C/B C/Bb A+
Guitar: [w/Flange]
e:----5--5--6--8---------||------------------------|-------------------1--1-|
B:----6--6--8--10--------||-------1-----------1----|-------1--------2-------|
G:----5--5--7--8---------||----0-----0-----0-----0-|----0-----0-------------|
D:-----------------------||------------------------|------------------------|
A:-------------------3---||-3-----------2----------|-1-----------0----------|
E:-----------------------||------------------------|------------------------|

A D G
When I was young they gave me a mongrel
(2/4) (4/4) . . .
e:-----0-----------|--------------------------|-/3-----------3----3---------|
B:---------2-------|--------------------------|-----3--------3h5--3---------|
G:--------------2--|-2--2--4--4--2--2--4--2-/-|----------------------4s2-p0-|
D:-----------------|-0--0--0--0--0--0--0--0---|--------5--------------------|
A:-----------------|--------------------------|-----------------------------|
E:-----------------|--------------------------|-----------------------------|

D F C D
piano. Spent all my time in-
e:------------------------|-----------------------|-------------------------|
B:------------------------|---1-3p1-------1-------|-------------------------|
G:-2--2--4--4--2--2--4--2-|---------2-------2p0---|-2--2--4--4--2--2--4--2-/|
D:-0--0--0--0--0--0--0--0-|-3-------------------2-|-0--0--0--0--0--0--0--0--|
A:------------------------|-------------3---------|-------------------------|
E:------------------------|-----------------------|-------------------------|

G C G F#
- venting the cup of tea.
. . .
e:-/3--------/-7---5---3--|-3-----3-----3----------|-------3-----------2----|
B:-----3------------------|-3h5---3h5---5p3----3---|----3-----3-----2-------|
G:-----------/-7---5---4--|-----------------5------|-4-----------3--------3/|
D:--------5---------------|------------------------|------------------------|
A:------------------------|------------------------|------------------------|
E:------------------------|------------------------|------------------------|

Bm Em
Writing your name in the sea
e:---------------------------------|----------------------------------------|
B:--7---7---7---7---7---7---7---7--|-/12---12---12---12---12---12---12---12-|
G:--7---7---7---7---7---7---7---7--|-/12---12---12---12---12---12---12---12-|
D:--9---9---9---9---9---9---9---9--|-/14---14---14---14---14---14---14---14-|
A:---------------------------------|----------------------------------------|
E:---------------------------------|----------------------------------------|

D* Bm
Banging my favorite head
e:-------------10-----------------------|-----------------------------------|
B:-------(10)--10h12--12----------------|------7---7---7---7---7---7--------|
G:----11--------------------11s9--7h9p7-|------7---7---7---7---7---7--------|
D:-12-----------------------------------|--9---9---9---9---9---9---9---/13--|
A:--------------------------------------|-----------------------------------|
E:--------------------------------------|-----------------------------------|

E
>
e:-12--------12-----12-----------------|------------------------------------|
B:----12-----12h14--12-----------------|------------------------------------|
G:-------13-------------11--9h11p9----|--------9---------------------------|
D:----------------------------------11-|-9--h11---11--p9--------------------|
A:-------------------------------------|------------------11-s9--7----------|
E:-------------------------------------|------------------------------------|

D G D
Missing the last bed, wa-ving a cheer - y herring.
. . .
e:------------------------|-/3---------3----3------|------------------------|
B:------------------------|-----3------3h5--5p3----|------------------------|
G:-2--2--4--4--2--2--4--2-|--------------------4s2-|-2--2--4--4--2--2--4--2-|
D:-0--0--0--0--0--0--0--0-|--------5---------------|-0--0--0--0--0--0--0--0-|
A:------------------------|------------------------|------------------------|
E:------------------------|------------------------|------------------------|

F C D G
Balancing brass bands on the tip of my toe.
. . .
e:---1--------------------|------------------------|-/3--------3------------|
B:-----3-p1------1--------|------------------------|-----3-----3h5--3-------|
G:----------2------2-p0---|-2--2--4--4--2--2--4--2-|------------------4s2-0-|
D:-3--------------------2-|-0--0--0--0--0--0--0--0-|--------5---------------|
A:-------------3----------|------------------------|------------------------|
E:------------------------|------------------------|------------------------|

C G F# Bm
Phoning your home
from my
e:------------------------|-------3-----------2----|------------------------|
B:------------------------|----3-----3-----2-------|-7--7--7--7--7--7--7--7-|
G:--------0h2p0------0----|/4-----------3--------3/|-7--7--7--7--7--7--7--7-|
D:(2)------------0h2----2-|------------------------|-9--9--9--9--9--9--9--9-|
A:-3----------------------|------------------------|------------------------|
E:------------------------|------------------------|------------------------|

Em D*
tree Drinking my favorite
e:---------------------------------|----------10----------------------------|
B:-/12--12--12--12--12------12-----|----------10---------10h12-10-----------|
G:-/12--12--12--12------12------12-|------11-----(11)--------------11s9-7h9-|
D:-/14--14--14--14-----------------|-/12----------12------------------------|
A:---------------------------------|----------------------------------------|
E:---------------------------------|----------------------------------------|

Bm E
loch
>
e:------------------------|12----12-------16---14------|-12---10------------|
B:---7--7--7--7--7--7-----|---12-----------------------|--------------------|
G:p7-7--7--7--7--7--7-/13-|----------15s16---14---12s13|---s11----9---------|
D:---9--9--9--9--9--9-----|----------------------------|--------------------|
A:------------------------|----------------------------|--------------------|
E:------------------------|----------------------------|--------------------|

[Piano Intro]

C C/B C/Bb A+ A
(2/4)
e:------------------------|-------------------1--1-|-------0----------------|
B:-------1-----------1----|-------1--------2-------|-------------2----------|
G:----0-----0-----0-----0-|----0-----0-------------|-------------------2----|
D:------------------------|------------------------|------------------------|
A:-3-----------2----------|-1-----------0----------|------------------------|
E:------------------------|------------------------|------------------------|

D G D
When I was old they gave me a model factory.
(4/4) . . .
e:------------------------|-/3----------/7---5--3--|------------------------|
B:------------------------|------------------------|------------------------|
G:-2--2--4--4--2--2--4--2-|-----4--4----/7---5--4--|-2--2--4--4--2--2--4----|
D:-0--0--0--0--0--0--0--0-|------------------------|-0--0--0--0--0--0--0----|
A:------------------------|------------------------|------------------------|
E:------------------------|------------------------|------------------------|

F C D G
I met three salads out on the motor - way
. . .
e:------------------------|------------------------|-----------3----3-------|
B:----1-3p1-------1-------|------------------------|-/3--------3h5--3-------|
G:----------2-------2p0---|-2--2--4--4--2--2--4--4-|-----4------------4s2-0-|
D:-3--------------------2-|-0--0--0--0--0--0--0--0-|--------5---------------|
A:-------------3----------|------------------------|------------------------|
E:------------------------|------------------------|------------------------|

C G F# Bm
Leaving your name at the
e:------------------------|-------3-----------2----|------------------------|
B:------------------------|----3-----3-----2-------|-7--7--7--7--7--7--7--7-|
G:----------0h2--0------0-|/4-----------3--------3/|-7--7--7--7--7--7--7--7-|
D:-----------------0h2----|------------------------|-9--9--9--9--9--9--9--9-|
A:-3----------------------|------------------------|------------------------|
E:------------------------|------------------------|------------------------|

Em D* Bm
door. Breaking my favorite egg.
e:------------------------|-----------10-----------|------------------------|
B:/12-12-12-12-12----12--|-10-10-10--10h12--------|-7--7--7--7--7--7--7----|
G:/12-12-12-12-12----12--|-11-11-11-------11-s9-7-|-7--7--7--7--7--7--7-/13|
D:/14-14-14-14----14------|-12-12-12---------------|-9--9--9--9--9--9--9----|
A:------------------------|------------------------|------------------------|
E:------------------------|------------------------|------------------------|

E >
e:-12---------12------12------------|---------------------------------------|
B:----12------12h14---12------------|---------------------------------------|
G:-------13---------------13-s11--9-|-------9-------------------------------|
D:----------------------------------|-9-h11----11-p9------------------------|
A:----------------------------------|-----------------11-s9--7--------------|
E:----------------------------------|---------------------------------------|

D G D
Missing the walrus, shar-ing my last ba - nana
. . .
e:------------------------|-/3---------3----3------|------------------------|
B:------------------------|-----3------3h5--3------|------------------------|
G:-2--2--4--4--2--2--4--2-|-------------------4-p0-|-2--2--4--4--2--2--4--2-|
D:-0--0--0--0--0--0--0--0-|--------5---------------|-0--0--0--0--0--0--0--0-|
A:------------------------|------------------------|------------------------|
E:------------------------|------------------------|------------------------|

F C D G
Ba - lancing zepplins on the end of my
. . .
e:------------------------|------------------------|-/3---------/7----------|
B:----1-3p1-------1-------|------------------------|-----3------------------|
G:----------2-------2p0---|-2--2--4--4--2--2--4--2-|------------/7---5--4---|
D:-3--------------------2-|-0--0--0--0--0--0--0--0-|--------5---------------|
A:-------------3----------|------------------------|------------------------|
E:------------------------|------------------------|------------------------|

C G F# Bm
nose. Calling your name in the
e:-3-----3------------3---|-------3-----------2----|------------------------|
B:-3h5---3h5--3h5p3---3h5-|----3-----3-----2-------|-7--7--7--7--7--7--7--7/|
G:------------------5-----|-4-----------3--------3/|-7--7--7--7--7--7--7--7/|
D:------------------------|------------------------|-9--9--9--9--9--9--9--9/|
A:------------------------|------------------------|------------------------|
E:------------------------|------------------------|------------------------|

Em D*
zoo. Blowing my favorite
e:------------------------|---------------------12--------12----------------|
B:12-12-12-12-12-12-12-12-|------10-------------12-h14----12----------------|
G:12-12-12-12-12-12-12-12-|----------11-------------------------11--s9---7--|
D:14-14-14-14-14-14-14-14-|-/12----------12---------------------------------|
A:------------------------|-------------------------------------------------|
E:------------------------|-------------------------------------------------|

Bm E
mind.
e:--------------------------|--12---------------14-----------16--------14--|
B:-7--7--7--7--7--7--7------|-------12-------------------------------------|
G:-7--7--7--7--7--7--7--/13-|---------------14--------15s16--------14------|
D:-9--9--9--9--9--9--9------|----------------------------------------------|
A:--------------------------|----------------------------------------------|
E:--------------------------|----------------------------------------------|
>
e:--------12-----------10--------------------------------------------------|
B:-------------------------------------------------------------------------|
G:-12s13--------10s11--------9---------------------------------------------|
D:-------------------------------------------------------------------------|
A:-------------------------------------------------------------------------|
E:-------------------------------------------------------------------------|

[Piano Intro]
C C/B C/Bb A+ D
e:------------------------|-------------------1--1-|-0-----------------------||
B:-------1-----------1----|-------1--------2-------|------2-------2----------||
G:----0-----0-----0-----0-|----0-----0-------------|--------------3----------||
D:------------------------|------------------------|--------------0----------||
A:-3-----------2----------|-1-----------0----------|-------------------------||
E:------------------------|------------------------|-------------------------||




Ваше мнение



Капча