T. See http://www.olga.net/faq/ for more information. #
From: "david ashear"
Subject: c/cream/crossroads.tab
Date: Wed, 04 Aug 1999 11:57:10 PDT
Cream - Crossroads (with everything)
By: David Ashear
Comments welcome
[email protected]
|---------------------------|--------------------------|
|---------------------------|--------------------------|
|--2--2--0--2--2p0h2p-0-----|--2--2--0--2~-0--2--0-----|
|--2------------------------|--2-----------------------|
|--0---------------------3b-|-p0--------------------3b-|
|---------------------------|--------------------------|
.25 .25
---------------------------|---------------------------|
-----2--0--2---------------|-----2---------------------|
-----2--0--2--2p0-2--0-----|-----2--0--2--2p0-2--0-----|
---------------------------|---------------------------|
-p0---------------------3b-|-p0---------------------3b-|
---------------------------|---------------------------|
.25 .25
---------------2----------|-------2-------2----------|
-------1--1---------1-----|----------1---------1-----|
------------2-------------|------------2-------------|
-p0--0--------------------|--0--0--------------------|
-----------------------3b-|-----------------------3b-|
--------------------------|--------------------------|

--------------------------|--------------------------|
-----2--0--2~-------------|-----2--0-----------------|
-----2--0--2~--0-2--0-----|-----2--0--2~--0-2--0-----|
--------------------------|--------------------------|
-p0--------------------3b-|-p0--------------------3b-|
--------------------------|--------------------------|
.25 .25.25
--------------------------|----------------------------|
--------------------------|----------------------------|
--------------------------|---------5b----7p5----5b-5pb|
-----2--2--2--------2-----|----5-7-----7------7--------|
-p0--2-----------2--2--3/-|--7-------------------------|
-----0--------0-----0-----|----------------------------|

-------------5---------------|-----------------------|
-----------5---8p5---5-------|---------5-------------|
--7~---5h6---------7---5h6---|-----5h6---------------|
-----------------------5-----|--7--7-----------------|
-----------------------------|------------7~---------|
-----------------------------|-----------------------|




Ваше мнение



Капча