Anyone for tennis
cream
written by clapton
organ written for guitar
e--3---------------3--5-3--5-3----------------------------------------------
b---------------------------------------------------------------------------
g---------------------------------------------------------------------------
d---------------------------------------------------------------------------
a---------------------------------------------------------------------------
e---------------------------------------------------------------------------
play that 3 times and at the end of 1 2 4 6 verse
e----3--------5-------3----0------------------------------------------------
b---------------------------------------------------------------------------
g---------------------------------------------------------------------------
d---------------------------------------------------------------------------
a---------------------------------------------------------------------------
e---------------------------------------------------------------------------
that happens twice during the bridges
e-9---7---5-----------------------------------------------------------------
b-------------7--5--6-------------------------------------------------------
g---------------------------------------------------------------------------
d---------------------------------------------------------------------------
a---------------------------------------------------------------------------
e---------------------------------------------------------------------------
reapeat that at the end. it is played with a violin organ and guitar
that's the solo stuff in the song




Ваше мнение



Капча