Crazy Town-Think Fast
**********
Transcribed by [email protected]
Tunning: Db Ab Db Gb Bb Eb
Intro
|-----------------|---------|
|-----------------|---------|
|-----------------|---------|
|-0--0-0---0--0-0-|-x-x-x-x-|
|-0--0-0---0--0-0-|-x-x-x-x-|
|-0--0-0---0--0-0-|-x-x-x-x-| x4
pm................ DJ AM
|-----------------|-------------|-----------------|-------------|
|-----------------|-------------|-----------------|-------------|
|-----------------|-------------|-----------------|-------------|
|-0--0-0---0--0-0-|-5-5-5-5-5-5-|-0--0-0---0--0-0-|-3-3-3-3-3-3-|
|-0--0-0---0--0-0-|-5-5-5-5-5-5-|-0--0-0---0--0-0-|-3-3-3-3-3-3-| (0:12)
|-0--0-0---0--0-0-|-5-5-5-5-5-5-|-0--0-0---0--0-0-|-3-3-3-3-3-3-|
pm................ Harm........ pm............... Harm........
|-----------------|-------------|-----------------|
|-----------------|-------------|-----------------|
|-----------------|-------------|-----------------|
|-0--0-0---0--0-0-|-5-5-5-5-5-5-|-0--0-0--0-0-0-0-|
|-0--0-0---0--0-0-|-5-5-5-5-5-5-|-0--0-0--0-0-0-0-|
|-0--0-0---0--0-0-|-5-5-5-5-5-5-|-0--0-0--0-0-0-0-|
pm................ Harm........
Verse
|--------|
|--------|
|--------|
|-0--0-0-|
|-0--0-0-| (0:24)
|-0--0-0-| x14
|-----------|
|-----------|
|-----------|
|-0-0-0-0-0-|
|-0-0-0-0-0-| (0:59)
|-0-0-0-0-0-|
Chorus
|---| |----|
|---| |----|
|---| |----|
|---| Keep playing this stacatto chord (C#) during the |----|
|-0-| (1:02) whole Chorus and add in some 12th fret stabs as well. |-12-|
|-0-| |-12-|
Verse 2
|-------------------------| |-------------------|
|-------------------------| |-------------------|
|-------------------------| |-------------------|
|-12----13----13b15r13-13-| |-12----13----15-13-|
|-12----13----13b15r13-13-| (1:19) |-12----13----15-13-| (1:33)
|-12----13----13b15r13-13-| x3 |-12----13----15-13-|
|------------------------------| |-----------------------|
|------------------------------| |-----------------------|
|------------------------------| |-----------------------|
|-12----13----12----13---15-13-| |-12----13----12----13/-|
|-12----13----12----13---15-13-| (1:37) |-12----13----12----13/-| (1:46)
|-12----13----12----13---15-13-| |-12----13----12----13/-|
|-----------|
|-----------|
|-----------|
|-0-0-0-0-0-|
|-0-0-0-0-0-| (1:55)
|-0-0-0-0-0-|Chorus 2
|---| |----|
|---| |----|
|---| |----|
|---| Keep playing this stacatto chord (C#) during the |----|
|-0-| (1:57) whole Chorus and add in some 12th fret stabs as well. |-12-|
|-0-| |-12-|Solo
|---|
|---|
|---|
|-0-|
|-0-| (2:15 & 2:23)
|-0-| Let Ring......
Bass Solo Arranged For Guitar (2:15) (Play whichever way you prefer)
|------------------------------------------|
|------------------------------------------|
|------------------------------------------|
|-0-------3//7-5---------------------------|
|-0---------------8---10-10-10--10--10--10-| x2
|-0------------------9--9--9--10--10--10---|
OR
|--------------------------------------------|
|--------------------------------------------|
|--------------------------------------------|
|-0------------------------------------------|
|-0-------8//12-10--8---10-10-10--10--10--10-| x2
|-0--------------------9--9--9--10--10--10---||-----------------|
|-----------------|
|-----------------|
|-0--0-0---0--0-0-|
|-0--0-0---0--0-0-| (2:41)
|-0--0-0---0--0-0-| x4
pm................
|-----------------|-------------|-----------------|-------------|
|-----------------|-------------|-----------------|-------------|
|-----------------|-------------|-----------------|-------------|
|-0--0-0---0--0-0-|-7-7-7-7-7-7-|-0--0-0---0--0-0-|-5-5-5-5-5-5-|
|-0--0-0---0--0-0-|-7-7-7-7-7-7-|-0--0-0---0--0-0-|-5-5-5-5-5-5-| (2:52)
|-0--0-0---0--0-0-|-7-7-7-7-7-7-|-0--0-0---0--0-0-|-5-5-5-5-5-5-|
pm................ Harm........ pm............... Harm........
|-----------------|-------------------|-----------------|
|-----------------|-------------------|-----------------|
|-----------------|-------------------|-----------------|
|-0--0-0---0--0-0-|-10-10-10-10-10-10-|-0--0-0--0-0-0-0-|
|-0--0-0---0--0-0-|-10-10-10-10-10-10-|-0--0-0--0-0-0-0-|
|-0--0-0---0--0-0-|-10-10-10-10-10-10-|-0--0-0--0-0-0-0-|
pm................ Harm..............Verse 3
|-------------------------| |-------------------|
|-------------------------| |-------------------|
|-------------------------| |-------------------|
|-12----13----13b15r13-13-| |-12----13----15-13-|
|-12----13----13b15r13-13-| (3:02) |-12----13----15-13-| (3:16)
|-12----13----13b15r13-13-| x3 |-12----13----15-13-|
|-----------------------|
|-----------------------|
|-----------------------|
|-12----13----12----13/-|
|-12----13----12----13/-| (3:21)
|-12----13----12----13/-|
|-----------|
|-----------|
|-----------|
|-0-0-0-0-0-|
|-0-0-0-0-0-| (3:30)
|-0-0-0-0-0-|Chorus 3
|---| |----|
|---| |----|
|---| |----|
|---| Keep playing this stacatto chord (C#) during the |----|
|-0-| (3:32) whole Chorus and add in some 12th fret stabs as well. |-12-|
|-0-| |-12-|
End
|-----------|
|-----------|
|-----------|
|-0-0-0-0-0-|
|-0-0-0-0-0-| (3:47)
|-0-0-0-0-0-|




Ваше мнение



Капча