Artist : Crazy Town
Song : Take It To The Bridge
Album : Darkhorse
Tabs By : cxtbboy
Verse 1 and 2
G --------------------------------------------------------
D --------------------------------------------------------
A -------5-4-2--------------------------------------------
E -------------3-2-0--------------------------------------
B -2-2-2--------------------------------------------------
Chorus
(x3)
G --------------------------------------------------------
D --------------------------------------------------------
A --------------------------------------------------------
E ---------------5----------------------------------------
B -3-4--4-3--3-4---4-3------------------------------------
(x1)
G --------------------------------------------------------
D --------------------------------------------------------
A --------------------------------------------------------
E --------------------------------------------------------
B -3-4--4-4--4-3------------------------------------------
Verse 3
G --------------------------------------------------------
D --------------------------------------------------------
A --------------------------------------------------------
E --------------------------------------------------------
B -2-2--2--2-2-2--2--2-2-2--2--2-2-2--2-------------------
Bridge
G --------------------------------------------------------
D --------------------------------------------------------
A --------------------------------------------------------
E --------------------------------------------------------
B -2-2----2-2----2-2----2-2---0--2-2----2-2----2-2----2-2-
Order
Verse 1 (x15)
Chorus (x2)
Verse 2 (x14)
Chorus (x2)
Bridge (x7)
Chorus (x2)
Bridge (x1)
Chorus (x1)




Ваше мнение



Капча