Author/Artist: Crazytown
Title: Only When I'm Drunk
Album: The Gift Of Game
Transcribed by: Benjamin Seet
Email: [email protected],uk
Tuning: DADGBE (drop d)
Very accurate

Intro and most parts of song
------------------------------------------------------------
------------------------------------------------------------
------------------------------------------------------------
-2-2-4-5-2-2-2--4-5-4---------------------------------------
-2-2-4-5-2-2-2--4-5-4---------------------------------------
-2-2-4-5-2-2-2--4-5-4---------------------------------------

Some parts of chorus (the 355 part use all upstrokes)
------------------------------------------------------------
------------------------------------------------------------
----5--------5-5-5-5----------------------------------------
-2--5--------5-5-5-5----------------------------------------
-2--3--------3-3-3-3----------------------------------------
-2----------------------------------------------------------




Ваше мнение



Капча