CrazyTown - Decorated - DarkHorse

Tabbed by Elvisz([email protected])

This song is very simple and it's pretty good...hope you like it...

Intro:
|--------------------------------------|
|--------------------------------------|
|--------------------------------------|
|--------------------------------------|
|--------------------------------------|
|-0-0-h7-0-0-h7-0-0-h8-0-0-h8-0-0-h8-0-|

|-----------------------------------------|
|-----------------------------------------|
|-----------------------------------------|
|-----------------------------------------|
|-----------------------------------------|
|-0-0-h9-0-0-h9-0-0-h10-0-0-h10-0-0-h10-0-|

Verse:
|-----|-----------|------------|
|-----|-----------|------------|
|-----|-----------|------------|
|-----|-----------|------------|
|-2-2-|-222-2-2-2-|-10-9-8-7-6-|
|-0-0-|-000-0-0-0-|-10-9-8-7-6-|
. . ... . . . . . . . . . palm mute

Pre-Chorus:
|--------------------------------------|
|--------------------------------------|
|--------------------------------------|
|--------------------------------------|
|--------------------------------------|
|-0-0-h7-0-0-h7-0-0-h8-0-0-h8-0-0-h8-0-|

|-----------------------------------------|
|-----------------------------------------|
|-----------------------------------------|
|-----------------------------------------|
|-----------------------------------------|
|-0-0-h9-0-0-h9-0-0-h10-0-0-h10-0-0-h10-0-|

Chorus:
|----------------------------------|
|----------------------------------|
|----------------------------------|
|-----------------6666666677777777-|
|-77777777555555554444444455555555-|
|-7777777755555555-----------------|

Fill1:
|------|
|------|
|------|
|------|
|-2-22-|
|-0-00-|
. .. .palm mute

Verse:
|-----|-----------|------------|
|-----|-----------|------------|
|-----|-----------|------------|
|-----|-----------|------------|
|-2-2-|-222-2-2-2-|-10-9-8-7-6-|
|-0-0-|-000-0-0-0-|-10-9-8-7-6-|
. . ... . . . . . . . . . palm mute

Pre-Chorus:
|--------------------------------------|
|--------------------------------------|
|--------------------------------------|
|--------------------------------------|
|--------------------------------------|
|-0-0-h7-0-0-h7-0-0-h8-0-0-h8-0-0-h8-0-|

|-----------------------------------------|
|-----------------------------------------|
|-----------------------------------------|
|-----------------------------------------|
|-----------------------------------------|
|-0-0-h9-0-0-h9-0-0-h10-0-0-h10-0-0-h10-0-|

Chorus:
|----------------------------------|
|----------------------------------|
|----------------------------------|
|-----------------6666666677777777-|
|-77777777555555554444444455555555-|
|-7777777755555555-----------------|

Verse:
|-----|-----------|
|-----|-----------|
|-----|-----------|
|-----|-----------|
|-2-2-|-222-2-2-2-|
|-0-0-|-000-0-0-0-|
. . ... . . . . palm mute

Chorus:
|----------------------------------|
|----------------------------------|
|----------------------------------|
|-----------------6666666677777777-|
|-77777777555555554444444455555555-|
|-7777777755555555-----------------|

Outro:
|-----|-----------|------------|
|-----|-----------|------------|
|-----|-----------|------------|
|-----|-----------|------------|
|-2-2-|-222-2-2-2-|-10-9-8-7-6-|
|-0-0-|-000-0-0-0-|-10-9-8-7-6-|
. . ... . . . . . . . . . palm mute




Ваше мнение



Капча