Artist : Crazy Town
Song : Change
Album : Darkhorse
Tabs By : cxtbboy

Intro
G ----------------------------------------------------------------
D ----------------------------------------------------------------
A ----------------------------------------------------7----9---12
E ----------------------------------------------------------------
B ----------------------------------------------------------------

Verse (x3)

G --------(6)*-----------11--------11-----------------------------
D ---------------------9---------9--------------------------------
A -4*----------------7---------9---------------------------0------
E --------------------------------------------------------------0-
B ---------------------------------------2*-----------------------

Chorus (repeat as necessary)

G -----------------------------------------------------------------
D -----------------------------------------------------------------
A -4*-----------------------4*----------0--------------------------
E --------------0-----2-----------------------0--------------------
B -----------------------------------------------------------------

Bridge (x3)
G -----------------------------------------------------------------
D -----------------------------------------------------------------
A -4------0--------------------------------------------------------
E --------------2-----0--------------------------------------------
B -----------------------------------------------------------------

G -----------------------------------------------------------------
D -----------------------------------------------------------------
A -4------0--------------------------------------------------------
E --------------0*-------------------------------------------------
B -----------------------------------------------------------------

Outro
G -----------------------------------------------------------------
D -----------------------------------------------------------------
A ----------------------------------------------------------0*-----
E -----------------------------------------------------------------
B -----------------------------------------------------------------

* = let ring




Ваше мнение



Капча