HomeNew TabsGuitar ForumsLessonsICQ
BuddiesPremier Sites


Sat Jan 27, 2001 TabCrawler.Com - Part Of The
Guitar.Com Network

Author/Artist: Crazy Town
Title: Butterfly
Album: Gift of Game
Transcribed by: Matthew Lewis
Email: [email protected]

This is the one and only riff. The rest is played by the bass.
Use Delay or Delay/Chorus if you have it.

-----------8------12------11h12p11--|-----------------------------------------
-10---------------------------------|---10v------8--10------------------------
------------------------------------|-------------------7---------------------
------------------------------------|-----------------------------------------
------------------------------------|-----------------------------------------
------------------------------------|-----------------------------------------
If you need a solo, mess with these notes.

-6------8--------10---------11----------12------------------------------------
-----6-------8---------10----------12---------14------------------------------
----------7---------9-----------11------13------------------------------------
------------------------------------------------------------------------------
------------------------------------------------------------------------------
------------------------------------------------------------------------------
These are in no partcular order.




Ваше мнение



Капча