Artist - Crazy Town
Song - Black Cloud
Album - The Gift of Game

Tabbed by Harpal

Verse (0:10)

G --------------------------------------------------------------------
D ------3---------------------------------2---------------------------
A -5------3-------------------------5-------3-------------------------
E -----------------3-----------------------------------3--------------

G --------------------------------------------------------------------
D ----------------------------------------2---------------------------
A -1-------3------------------------5-------3-------------------------
E -----------------3-----------------------------------0-3------------

1st Chorus (0:50) x2

G --------------------------------------------------------------------
D --------------------------------------------------------------------
A ---------------------------------1----------------------------------
E -1--------------3---------------------------------------------------

Verse (1:10)

G --------------------------------------------------------------------
D ------3-------------------------2-----------------------------------
A -5------3-----------------5-------3---------------------------------
E -----------------3---------------------------3----------------------

G --------------------------------------------------------------------
D --------------------------------2-----------------------------------
A -1-------3----------------5-------3---------------------------------
E -----------------3------------------------0-3-----------------------

2nd Chorus (0:50) x4

G --------------------------------------------------------------------
D --------------------------------------------------------------------
A ---------------------------------1-1-1-1-1-1-1-1-1-1-1-1-1-1-1-1----
E -1-1-1-1-1-1-1-1-3-3-3-3-3-3-3-3------------------------------------

Verse (2:30)

G --------------------------------------------------------------------
D ------3---------------------------------2---------------------------
A -5------3-------------------------5-------3-------------------------
E -----------------3-----------------------------------3--------------

G --------------------------------------------------------------------
D ----------------------------------------2---------------------------
A -1-------3------------------------5-------3-------------------------
E -----------------3-----------------------------------0-3------------

3rd Chorus (3:10) x4

G --------------------------------------------------------------------
D --------------------------------------------------------------------
A ---------------------------------1-1-1-1-1-1-1-1-1-1-1-1-1-1-1-1----
E -1-1-1-1-1-1-1-1-3-3-3-3-3-3-3-3------------------------------------

(3:50) x2

G --------------------------------------------------------------------
D ------3---------------------------------2---------------------------
A -5------3-------------------------5-------3-------------------------
E -----------------3-----------------------------------0-3------------

G --------------------------------------------------------------------
D ----------------------------------------2---------------------------
A -1-------3------------------------5-------3-------------------------
E -----------------3-----------------------------------0-3------------




Ваше мнение



Капча