Crazy Town - Battle Cry
EMail: [email protected]
Album : Darkhorse
Tabbed By : cxtbboy

Intro (0:03)

G ---------------------------------------------------------------------------
D ---------------------------------------------------------------------------
A -4-----------2---------2---------------------------------------------------
E -------------------------4---4---4---4-------------------------------------
B ---------------------------------------------------------------------------

(0:13) (x7)

G ---------------------------------------------------------------------------
D ---------------------------------------------------------------------------
A -7-6-4-7-6-4-7-6-4-7-6-4-7-6-----------------------------------------------
E ---------------------------------------------------------------------------
B ---------------------------------------------------------------------------

Verse 1 (0:38)

G ---------------------------------------------------------------------------
D ---------------------------------------------------------------------------
A -7--7--7-6--6--7-6--7--7--7-6--6--7-6---7-6--6-7-6--7--7--7-6--6--7-6------
E ---------------------------------------------------------------------------
B ---------------------------------------------------------------------------

(0:51)

G ---------------------------------------------------------------------------
D ---------------------------------------------------------------------------
A -2-2-2-2-2-2-2-2-2-2-2-2---------------------------------------------------
E --------------------------4-4-4-4-4-4-4-4-4-4-4-4--------------------------
B ---------------------------------------------------2-2-2-2-2-2-2-2-2-2-2-2-

Chorus (1:03) (x8)

G ---------------------------------------------------------------------------
D ---------------------------------------------------------------------------
A -6-6-6-5-5-5-4-4-4-7-7-7-6-6-5-5-------------------------------------------
E ---------------------------------------------------------------------------
B ---------------------------------------------------------------------------

Verse 2 (1:29)

G -------------------------------------------------------------------------------------------------
D -------------------------------------------------------------------------------------------------
A -7-6-4-6-7----7-6-4-6-7----7-6-4-6-7----7-6-4-6-7-----7-6----7-6-4-6-7----7-6-4-6-7----7-6-4-6-7-
E -------------------------------------------------------------------------------------------------
B -------------------------------------------------------------------------------------------------

(1:42) (x3)

G ---------------------------------------------------------------------------
D ---------------------------------------------------------------------------
A -4-6-6-6-6-4-6-6-6-6-4-6-7-------------------------------------------------
E ---------------------------------------------------------------------------
B ---------------------------------------------------------------------------

(1:52)

G ---------------------------------------------------------------------------
D ---------------------------------------------------------------------------
A -4-6-6-6-6--6-4------------------------------------------------------------
E ---------------------------------------------------------------------------
B ---------------------------------------------------------------------------

Pre Chorus (1:55) (x3)

G ---------------------------------------------------------------------------
D ---------------------------------------------------------------------------
A -4-6-6-6-6-4-6-6-6-6-4-6-7-------------------------------------------------
E ---------------------------------------------------------------------------
B ---------------------------------------------------------------------------

(2:04)

G ---------------------------------------------------------------------------
D ---------------------------------------------------------------------------
A -4-6-6-6-6--6-4------------------------------------------------------------
E ---------------------------------------------------------------------------
B ---------------------------------------------------------------------------

Chorus (2:08) (x11)

G ---------------------------------------------------------------------------
D ---------------------------------------------------------------------------
A -6-6-6-5-5-5-4-4-4-7-7-7-6-6-5-5-------------------------------------------
E ---------------------------------------------------------------------------
B ---------------------------------------------------------------------------

(2:43)

G ---------------------------------------------------------------------------
D ---------------------------------------------------------------------------
A -6-6-6-5-5-5-4-4-4-7---6---5-----------------------------------------------
E ---------------------------------------------------------------------------
B ---------------------------------------------------------------------------




Ваше мнение



Капча