CRADLE OF FILTH
LUSTMORD AND WARSGAM (THE LICK OF CARNIVOROUS WINGS)
by: roy .... [email protected]
t: tremollo
RIFF 1 OO:54 - 01:10
|------------------------------------------------------
|------------------------------------------------------
|------------------------------------------------------
|------------------------------------------------------
|------------------------------------------------------
|-3t2t----3t2t3t2t-----3t2t3t2t----3t2t3t2t--3t2-------
RIFF 2 01:11 - 01:42
|------------------------------------------------------
|------------------------------------------------------
|------------------------------------------------------
|-5t4t----5t4t4t4t-----5t4t5t4t----5t4t5t4t--5t4-------
|------------------------------------------------------
|------------------------------------------------------
01:43 - 01:48
X 2
|-----------------|
|-----------------|
|-----------------|
|-----------------|
|--9--7/9--7/9----|
|--7--5/7--5/7----|
01:49 - 02:18
X4 X2
|----------------|-----------------------|
|----------------|-----------------------|
|*---------------|----------------------*|
|*---------------|----------------------*|
|--2-------10-9--|--9--7/9--7-9-12-11-7--|
|--0-------------|--7--5/7--5-7-10--9-5--|
02:19 - 02:24
|------------------------------------------------------
|---------------------------------------12-------------
|-9--7-9--7-9-12-11-----12--11-12--11-12----14--12------
|-------------------12-----------------------------------
|------------------------------------------------------
|------------------------------------------------------
02:25 - 02:30
G|------------------------------------------------------
U|------------------------------------------------------
I|------------------------------------------------------
T|-----9-7-----7-9-7------------------------------------
|--7------10--------10----10-9-7--9-10-9---------------
1|----------------------8-------------------------------
&|
G|------------------------------------------------------
U|------------------------------------------------------
I|------------------------------------------------------
T|--2-------------------10------------------------------
|--2-------------------10------------------------------
2|--0--------------------8------------------------------

02:31
|------------------------------------------------------
|------------------------------------------------------
|------------------------------------------------------
|------------------------------------------------------
|--6-6--6-6-6(6)(6)--6-6--6-6-6(6)(6)--6-6--6-6-6(6)(6)
|--4-4--4-4-4-5--7---4-4--4-4-4-5--8---4-4--4-4-4-5--7-

|------------------------------------------------------
|------------------------------------------------------
|------------------------------------------------------
|------------------------------------------------------
|-5-5--5-5-5-5-5---------------------------------------
|-3-3--3-3-3-3-3---------------------------------------
sorry but this is all!! jeje, soon... the whole song




Ваше мнение



Капча

Рекомендуем