From [email protected] Thu May 8 10:11:34 1997
Date: Wed, 19 Mar 1997 17:05:11 -0600 (CST)
From: Pete Rasche
To: olga
Subject: CRD:"So Sad About Me" by Cowboy Mouth
"So Sad About Me" by Cowboy Mouth
From the MCA album "Are You With Me?"
Written/sung by Fred LeBlanc
-------------------------------------
F#=244322 B=x24442 A=x02220
Opening riff (played twice):
E|---------------------|-----------------
B|---------------------|-----------------
G|---------------------|-----------------
D|---------------------|-----------------
A|-------0---0-0-0-2s4-|-------0---0-----
E|-0h2-2---2-----------|-0h2-2---2-------
The verses are played over a F#(hammer note)-B-A-A riff as below:
F#= hammer-on the open E string at the 2nd fret (E|--0h2----)
Then play B chord once and let ring, then an A chord twice.
F#(h.o.) B(let ring) A A
There's a window by the bedroom door
F#(h.o.) B(let ring) A A
That never will be opened
Etc...
CHORUS:
B A
So sad about me, so sad about me
B A B-A-F#
So sad about me--e--ee, I'm sad about you
Middle riff:
E|--------------------|------------------
B|--------------------|------------------
G|--------------------|------------------
D|--------------------|------------------
A|-----2s4--2-2-0-2-0-|-----2s4-2-2-0-2--
E|-2-2----------------|-2-2--------------
E|--------------------|--------------
B|--------------------|--------------
G|--------------------|--------------
D|--------------------|--------------
A|-----2s4--2-2-0-2-0-|--2-0---------
E|-2-2----------------|-------2------
BRIDGE:
F# F# F# A A A A A
But I really must admit that I am
F# F# F# A A A A
Glad that I am living
(repeat F#-A through bridge, end on F#)


Ваше мнение



Капча