Man on The Run
By: Cowboy Mouth
From the album: Are You With Me?
Transcribed by: Kevin League
The intro takes a little practice to get right, but it sounds cool.
This is my favorite song off of Are You With Me?.

Chords used:
G:330023
D:3230XX
Cadd9:33023X
Cadd9/B:33002X
A:556775
E:X9997X
D(barre chord):X7775X
D/C#:X7774X

Intro:
E---3--3--3--2--2--2--3------3--3--3--2--2--2--3-------3--3--3--2--2--
B---3--3--3--3--3--3--3------3--3--3--3--3--3--3-------3--3--3--3--3--
G---0--0--0--0--0--0--0------2--2--2--2--2--2--2-------0--0--0--0--0--
D---0--0--0--0--0--0--0------0--0--0--0--0--0--0-----------------------
A---x--x--x--x--x--x--x--------------------------------3--3--3--3--3--
E---3--3--3--3--3--3--3------------------------------------------------

E-2--3-------3--3--3--2--2--2--3-----------
B-3--3-------3--3--3--3--3--3--3-----------
G-0--0-------0--0--0--0--0--0--0-----------
D------------------------------------------
A-3--3-------2--2--2--2--2--2--2-----------
E------------------------------------------ Repeat

Verse 1:
G D Cadd9 Cadd9/B
I've got the desert in my eyes and the western skies on my mind.
G D Cadd9 Cadd9/B
Everywhere I look I see wide open country for miles.
G D Cadd9 Cadd9/B
Out in the distance, a mountain the size of the sun.
G D Cadd9
I ain't drivin' nowhere, I feel like a man on the run.
Get gone!(intro riff)

Verse2:
Adobe and teardrops are all I'm leavin' behind. I'm somewhere in Texas, I'm lost and I don't see the signs. In a bar in New Mexico, an old man sells me a gun. But I ain't shootin' no one. I feel like a man on the run. That's right.(intro riff all through chorus)

I feel like a man on the ruuuuuuuuunnn...........

Bridge: A, E, D, D/C#
Whooaaa, Try to catch me
Whooaaa, I just gotta be free, free, free
Whooaaa, Try to catch me
Whooooooooooooaaaaaaaaaaa
(Back to intro riff)

Verse3:
From San Bernardino, you can see the lights of LA. The closer they get, the further they're slippin' away. I can almost feel the redemption forgiveness becomes. But I can't forgive anyone, I feel like a man on the run. That's right. (intro riff)

I feel like a man on the ruuuuuuunnnnnnnn...............

I can't forgive anyone, I won't forgive anyone, and I don't forgive anyone, and I won't forgive you, that's true.


Ваше мнение



Капча