Date: Tue, 18 Nov 1997 12:33:59 +0100
From: Esteban Quiroga Garza
Subject: Tab: "Humanos Mexicanos" (Versisn Heavy) de Control Machete
Humanos Mexicanos
Control Machete
Hernandez-Chapa-Caballero
Como lo prometido es deuda.....aqui les va la versiуn heavy...
Mexican curios no me vas a decir Que no sabнas que tambiйn somos humanos
E--------------------------------------------------------------------
B--------------------------------------------------------------------
G--------------------------------------------------------------------
D----------------6-6--4------------6-6--4----------------6-6--8------
A----------------6-6--4---------X--6-6--4-------------X--6-6--8------
E----------------4-4--2---------X--4-4--2-------------X--4-4--6------
Y nos llaman Hermanos Mexicanos
E--------------------------------
B--------------------------------
G--------------------------------
D------8--------------8----------
A--XX--8---------XX--8----------
E--XX--6---------XX--6----------
Te llevaste una sorpresa, calmado todavнa estб muy tranquila esta pinche
Fiesta
E-------------------------------------------------------------------
B-------------------------------------------------------------------
G-------------------------------------------------------------------
D-6-6--4--------6-6--4--------6-6--8--------8--------------8--------
A-6-6--4-----X--6-6--4-----X--6-6--8----XX--8----------XX--8--------
E-4-4--2-----X--4-4--2-----X--4-4--6----XX--6----------XX--6--------
La fusca es nuevecita y no pienso usarla antes hay que bendecirla por la
Sangre mexicana
E-------------------------------------------------------------------
B-------------------------------------------------------------------
G-------------------------------------------------------------------
D----6-6--4--------6-6--4------------6-6--8---------8------------8--
AXX--6-6--4-----X--6-6--4---------X--6-6--8-----XX--8--------XX--8--
EXX--4-4--2-----X--4-4--2---------X--4-4--6-----XX--6--------XX--6--
Tirada en la calle de los gueros, en el rнo frente a la mirada de mi
Gente y de mis hijos
E-------------------------------------------------------------------
B-------------------------------------------------------------------
G-------------------------------------------------------------------
D-----6-6--4------6-6--4---------6-6--8-------------8-----------8---
AXX---6-6--4---X--6-6--4------X--6-6--8---------XX--8-------XX--8---
EXX---4-4------X--4-4---------X--4-4--6---------XX--6-------XX--6---
Y si crees que es sencillo deshacerte de mi no soy paciente y no
Respondo yo por mis reacciones
E-------------------------------------------------------------------
B-------------------------------------------------------------------
G-------------------------------------------------------------------
D-----6-6--4------6-6--4----------6-6--8------------8-----------8---
AXX---6-6--4---X--6-6--4-------X--6-6--8--------XX--8-------XX--8---
EXX---4-4--2---X--4-4--2-------X--4-4--6--------XX--6-------XX--6---
Si te pones agresivo en la frente un sуlo tiro: Pah!
Si te pones muy al brinco
Si recuerdas yo desciendo y tengo sangre Pancho Villa a caballo o en la
Troca tengo mi punterнa
E------------------------------------------------------------------
B------------------------------------------------------------------
G------------------------------------------------------------------
D-----6-6--4--------6-6--4-------------6-6--8-------8-----------8---
AXX---6-6--4-----X--6-6--4----------X--6-6--8---XX--8-------XX--8---
EXX---4-4--2-----X--4-4--2----------X--4-4--6---XX--6-------XX--6---
Cuando quieras hechame un fonazo
Tu sabes compadre que si nos vemos en algъn lado
Es para agarrarnos a chingasos
Ja Ja! que vas a poner un muro sabemos taladrear, y por seguro le damos
Duro
E------------------------------------------------------------------
B------------------------------------------------------------------
G------------------------------------------------------------------
D-----6-6--4------6-6--4------------6-6--8--------8-----------8---
AXX---6-6--4---X--6-6--4----------X--6-6--8---XX--8-------XX--8---
EXX---4-4------X--4-4--2----------X--4-4--6---XX--6-------XX--6---
Za! Za! golpe Za! Za! golpe no pienses que con eso
Me vas a detener
E------------------------------------------------------------------
B------------------------------------------------------------------
G------------------------------------------------------------------
D-----6-6--4-------6-6--4--------6-6--8--------8-----------8------
A-----6-6--4----X--6-6--4-----X--6-6--8----XX--8-------XX--8------
E-----4-4--2----X--4-4--2-----X--4-4--6----XX--6-------XX--6-----
Ni de broma ni en serio tu podras tener los huevos que tenemos paґ
Madrearlos
E-----------------------------------------------------------------
B-----------------------------------------------------------------
G-----------------------------------------------------------------
D-----6-6--4--------6-6--4--------------6-6--8----------------------
AXX---6-6--4------X--6-6--4----------X--6-6--8----------------------
EXX---4-4--2------X--4-4--2----------X--4-4--6----------------------
Y recuerda pinche gьero
E-------------------------
B-------------------------
G-------------------------
D--------8-----------8---
A----XX--8-------XX--8---
E----XX--6-------XX--6---
Que tus leyes no me rigen ni en tu casa ni en la mia Voy a estar sentado
Como quiera
E-------------------------------------------------------------------
B-------------------------------------------------------------------
G-------------------------------------------------------------------
D---------------6-6--4--------------6-6--4----------------6-6--8---
A----------XX---6-6--4-----------X--6-6--4-------------X--6-6--8-
E----------XX---4-4--2-----------X--4-4--2-------------X--4-4--6--
En tu cocina
E-------------------------
B-------------------------
G-------------------------
D--------8-----------8---
A----XX--8-------XX--8---
E----XX--6-------XX--6---
Fumбndome un cigarro y tomando tu tequila Viendo tu tele y comiendo tu
Comida
E------------------------------------------------------------------
B------------------------------------------------------------------
G------------------------------------------------------------------
D-----6-6--4--------6-6--4----------6-6--8----------8-----------8---
AXX---6-6--4-----X--6-6--4-------X--6-6--8------XX--8-------XX--8---
EXX---4-4--2-----X--4-4--2-------X--4-4--6------XX--6-------XX--6---
Ya no mбs voy a correr
(Somos humanos y nos llaman mexicanos)
E----------------------------
B----------------------------
G----------------------------
D---4-----------------------
A---4------------------------
E---2------------------------
Ya no mбs voy a huir
(Somos humanos y nos llaman mexicanos)
E----------------------------
B----------------------------
G----------------------------
D---7-----------------------
A---7------------------------
E---5------------------------
Ya no mбs voy a morir
(Somos humanos y nos llaman mexicanos)
E----------------------------
B----------------------------
G----------------------------
D---6-----------------------
A---6------------------------
E---4------------------------
Me voy a reir de ti
E----------------------------
B----------------------------
G----------------------------
D---4-4--4-4-4---4-4-------- 2 Veces
A---4-4--4-4-4---4-4--------
E---2-4--4-4-4---4-4--------
Viaje de tierras lejanas para poder trabajar ahora del gabacho tu me
Quieres sacar
E------------------------------------------------------------------
B------------------------------------------------------------------
G------------------------------------------------------------------
D-----6-6--4--------6-6--4----------6-6--8---------8-----------8---
AXX---6-6--------X--6-6--4-------X--6-6--8-----XX--8-------XX--8---
EXX---4-4--2-----X--4-4--2-------X--4-4--6-----XX--6-------XX--6---
No podias plantar ni una pinche semilla yo ya lo hice y ahora me mandas
A la migra
E------------------------------------------------------------------
B------------------------------------------------------------------
G------------------------------------------------------------------
D-----6-6--4--------6-6--4----------6-6--8---------8-----------8---
AXX---6-6--4-----X--6-6--4-------X--6-6--8-----XX--8-------XX--8---
EXX---4-4--2-----X--4-4--2-------X--4-4--6-----XX--6-------XX--6---
Pues soy ilegal soy inmigrante tengo sangre mexicana y sigo adelante
E-----------------------------------------------------------------
B-----------------------------------------------------------------
G-----------------------------------------------------------------
D-----6-6--4--------6-6--4----------6-6--8--------8-----------8---
AXX---6-6--4-----X--6-6--4-------X--6-6--8----XX--8-------XX--8---
EXX---4-4--2-----X--4-4--2-------X--4-4--6---XX--6-------XX--6---
Tus leyes cntra mi gente no nos van a parar los Guerreros Aztecas van a
Reencarnar
E------------------------------------------------------------------
B------------------------------------------------------------------
G------------------------------------------------------------------
D-----6-6--4--------6-6--4-----------6-6--8--------8-----------8---
AXX---6-6--4------X--6-6--4-------X--6-6--8----XX--8-------XX--8---
EXX---4-4--2------X--4-4--2-------X--4-4--6----XX--6-------XX--6---
En el pueblo hambriento de la libertad y las alas del бguila al cielo
Nos levarб
E------------------------------------------------------------------
B------------------------------------------------------------------
G------------------------------------------------------------------
D-----6-6--4---------6-6--4----------6-6--8--------8-----------8---
AXX---6-6--4------X--6-6--4-------X--6-6--8----XX--8-------XX--8---
EXX---4-4--2------X--4-4--2-------X--4-4--6----XX--6-------XX--6---
Somos una raza que toma el machete para defender lo que nos pertenece
(crece)
E------------------------------------------------------------------
B------------------------------------------------------------------
G------------------------------------------------------------------
D-----6-6--4--------6-6--4-----------6-6--8--------8-----------8---
AXX---6-6--4-----X--6-6--4--------X--6-6--8----XX--8-------XX--8---
EXX---4-4--2-----X--4-4--2--------X--4-4--6----XX--6-------XX--6---
La lucha unida (siente)
Por un ideal tras la vida
E------------------------------------------------------------------
B------------------------------------------------------------------
G------------------------------------------------------------------
D--6-4-----6-6--4--------6-6--4---------6-6--8-----8-----------8---
A--6-4--XX-6-6--4-----X--6-6--4------X--6-6--8-XX--8-------XX--8---
E--4-2--XX-4-4--2-----X--4-4--2------X--4-4--6-XX--6-------XX--6---
Golpe tras golpe me voy a levantar y mis paisanos no se van a resagar
E------------------------------------------------------------------
B------------------------------------------------------------------
G------------------------------------------------------------------
D-----6-6--4-----------6-6--4--------6-6--8--------8-----------8---
AXX---6-6--4--------X--6-6--4-----X--6-6--8----XX--8-------XX--8---
EXX---4-4--2--------X--4-4--2-----X--4-4--6----XX--6-------XX--6---
Ya no mбs voy a correr
(Somos humanos y nos llaman mexicanos)
E----------------------------
B----------------------------
G----------------------------
D---4-----------------------
A---4------------------------
E---2------------------------
Ya no mбs voy a huir
(Somos humanos y nos llaman mexicanos)
E----------------------------
B----------------------------
G----------------------------
D---7-----------------------
A---7------------------------
E---5------------------------
Ya no mбs voy a morir
(Somos humanos y nos llaman mexicanos)
E----------------------------
B----------------------------
G----------------------------
D---6-----------------------
A---6------------------------
E---4------------------------
Me voy a reir de ti
E----------------------------
B----------------------------
G----------------------------
D---4-4--4-4-4---4-4-------- 2 Veces
A---4-4--4-4-4---4-4--------
E---2-4--4-4-4---4-4--------
ЇQuй pasa? їTe sientes derrotado?
Y ya no puedes mantenerte de tu lado
Si observas, no existe diferencia
Y aunque no quieras seguiremos en tu mesa
Y el mariachi sigue al ritmo de mente
Que es el mismo demi raza y de mi gente
Pase lo que pase siempre seguire de frente
Aunque con las armas nos topemos con la muerte
Ya no mбs voy a correr
(Somos humanos y nos llaman mexicanos)
E----------------------------
B----------------------------
G----------------------------
D---4-----------------------
A---4------------------------
E---2------------------------
Ya no mбs voy a huir
(Somos humanos y nos llaman mexicanos)
E----------------------------
B----------------------------
G----------------------------
D---7-----------------------
A---7------------------------
E---5------------------------
Ya no mбs voy a morir
(Somos humanos y nos llaman mexicanos)
E----------------------------
B----------------------------
G----------------------------
D---6-----------------------
A---6------------------------
E---4------------------------
Me voy a reir de ti
E----------------------------
B----------------------------
G----------------------------
D---4-4--4-4-4---4-4-------- 2 Veces
A---4-4--4-4-4---4-4--------
E---2-4--4-4-4---4-4--------





Ваше мнение



Капча