SONG FOR KIM by Concrete Blonde
------------
Transcribed by [email protected] [Enrico_Giuseppe BETTIO] (thats me! :-)
Riff through verses:
E|--------------------|-------------------|
B|--------------------|-------------------|
G|o------------------o|o-----------------o|
D|o------------------o|o-----------------o|
A|--0-0-0-1-----------|--0-0-0-5----------|
E|--------------------|-------------------|
Oh Kim, your diary said-
The voices calling you from the edge.
They finally called you..Away-
You know I hear them too, they're telling me to stay.
Oh Kim, remember when
We had a million plans and we believed them.
Angry words, ring in my head
I'd give every song I got in me to get you back again.
Chorus:
C Bb
She said, I could
Dm
She said hold on, hold out
C
Cause its good.
Bb Bb
She said, it's right
Dm
She said hold on, hold out
C
Cause I know that you can fight
I know you can.
You're right again
There is an easy way
Out of this world.
I'm staying. I wonder why?
It may be all I have,
But its mine, its mine.
Chorus
Solo
Chorus
In the chorus, the Dm and C are played like this:
Dm C
E|----1------1-0-----------0------
B|---3------3----3-1----3----1----
G|--2------2-----------0----------
D|-0------0-----------2-----------
A|-------------------3------------
E|--------------------------------
The C is played a little differently the second time around.
Solo:
Pretty easy:
H hammer-on
P pull-off
/ slide up to
\ slide down to
E|-------------|-----------------|--------------|
B|-------------|-----------------|--------------|
G|-------------|-----------------|--------------|
D|-------------|-----------------|--------------|
A|-8--7-\1-----|-5-5h8-7--8-\1---|-/8-7-5-0-----|
E|-------------|-----------------|--------------|
E|----------------|-------------|-----------------|
B|----------------|-------------|-----------------|
G|----------------|-------------|-----------------|
D|----------------|-------------|-----------------|
A|-7-8-7--8-\0----|-8--7-\1-----|-5-5h8-7--8-\1---|
E|----------------|-------------|-----------------|
E|------------------|------------------|
B|------------------|------------------|
G|------------------|------------------|
D|-/7-7-5-----------|------------------|
A|--------8p7p5-7---|-7-7h8-7-8-5------|
E|------------------|------------------|
Happy playing
Eric




Ваше мнение



Капча

Рекомендуем