From: [email protected] (Enrico_Giuseppe BETTIO)

DANCE ALONG THE EDGE

Intro:

Let ring let ring
E-|-------0-------------------1--------------|
B-|---1-------------------1------------------|
G-|-2---2---------------2---2----------------|
D-|------------------------------------------|
A-|------------------------------------------|
E-|------------------------------------------|
Let ring let ring
E-|-------0-------------------1--------1p0---|
B-|---1-------------------1----------------1-|
G-|-2---2---------------2---2----------------|
D-|------------------------------------------|
A-|------------------------------------------|
E-|------------------------------------------|

And that repeats through different parts of the song

?
Sometimes we laugh like children
Running hand in hand
I never felt like this before
I never will again

?
Sometimes we cry like babies
And I hold you to my heart
Blah Blah Blah
Blah Blah Blah

Am
And we're happy here but we live in fear,
F
We've seen a lot of temples crumble
G D5 D5/E5
Some are flesh and blood and always under grass ^
|
This means slide
(with intro)
Dance along the edge
Etc




Ваше мнение



Капча