From: matthew green

Path: munagin!mrgreen
Date: 20 Aug 92 02:56:53 GMT
Message-ID:
Newsgroups: alt.guitar.tab
Subject: Re: TAB : Concrete Blond's - Bloodletting
Distribution: aus
References:

Well, This is what I think Blood letting is:

In a shuffle...

With a guitar very softly playing a E note, bend up from
The top.

Ie, e --21^3-- or e --22^2-- ..

Bass intro:

G -|--------------------------|--------------------------|-
D -|--------------------------|--------------------------|-
A -|--------------------------|--------------------------|-
E -|--0--------0--3--------3--|--2--------------1--1--0--|-
| ^ ^ ^ ^ ^ ^ ^ ^ | ^ ^ ^ ^ ^ ^ ^ ^ |

Intro Guitar:

E -|--------------------------|--------------------------|-
B -|--------------------------|--------------------------|-
G -|--------------------------|--------------------------|-
D -|--------------------------|--------------------------|-
A -|--------------------------|--------------------------|-
E -|--0-----------3-----------|--2-----------------1-----|-
| ^ ^ ^ ^ ^ ^ ^ ^ | ^ ^ ^ ^ ^ ^ ^ ^ |

E -|--------------------------|--------------------------|-
B -|--------------------------|--------------------------|-
G -|--------------------------|--------------------------|-
D -|--------------------------|--------------------------|-
A -|--------------5-----------|--4-----------------3-----|-
E -|--0-----------------------|--------------------------|-
| ^ ^ ^ ^ ^ ^ ^ ^ | ^ ^ ^ ^ ^ ^ ^ ^ |

E -|--------------------------|--------------------------|-
B -|--------------------------|--------------------------|-
G -|--------------------------|--------------------------|-
D -|--------------------------|--------------------------|-
A -|--------------------------|--------------------------|-
E -|--0-----------3-----------|--2-----------------1-----|-
| ^ ^ ^ ^ ^ ^ ^ ^ | ^ ^ ^ ^ ^ ^ ^ ^ |

E -|--------------3--3--3--3--|--2--2--2--2--1--1--1--1--|-
B -|--------------3--3--3--3--|--2--2--2--2--1--1--1--1--|-
G -|--------------4--4--4--4--|--2--2--2--2--2--2--2--2--|-
D -|--------------5--5--5--5--|--4--4--4--4--3--3--3--3--|-
A -|--------------5--5--5--5--|--4--4--4--4--3--3--3--3--|-
E -|--0-----------3--3--3--3--|--2--2--2--2--1--1--1--1--|-
| ^ ^ ^ ^ ^ ^ ^ ^ | ^ ^ ^ ^ ^ ^ ^ ^ |

Guitar before verse:
E5 G5 F#5 F5
| ^ ^ ^ ^ ^ ^ ^ ^ | ^ ^ ^ ^ ^ ^ ^ ^ |

Bass during verse:

G -|--------------------------|--------------------------|-
D -|--------------------------|--------------------------|-
A -|--------------------------|--------------------------|-
E -|--0--------0--3--------3--|--2--------2--1--------0--|-
| ^ ^ ^ ^ ^ ^ ^ ^ | ^ ^ ^ ^ ^ ^ ^ ^ |

Guitar during verse:

E -|--0--------0--3--------3--|--2--------2--1--------0--|-
| ^ ^ ^ ^ ^ ^ ^ ^ | ^ ^ ^ ^ ^ ^ ^ ^ |

Bass during chorus:

G -|--------------------------|--------------------------|-
D -|--------------------------|--------------------------|-
A -|--------------------------|--------------------------|-
E -|--0--------0--3--------3--|--5--------5--8--------8--|-
| ^ ^ ^ ^ ^ ^ ^ ^ | ^ ^ ^ ^ ^ ^ ^ ^ |

G -|--------------------------|--------------------------|-
D -|--------------------------|--------------------------|-
A -|--------------------------|--------------------------|-
E -|--0--------0--3--------3--|--5--------5--8--------8--|-
| ^ ^ ^ ^ ^ ^ ^ ^ | ^ ^ ^ ^ ^ ^ ^ ^ |

G -|--------------------------|--------------------------|-
D -|--------------------------|--------------------------|-
A -|--------------------------|--------------------------|-
E -|--0--------0--3--------3--|--5--------5--8--------8--|-
| ^ ^ ^ ^ ^ ^ ^ ^ | ^ ^ ^ ^ ^ ^ ^ ^ |

G -|--------------------------|--------------------------|-
D -|--------------------------|--------------------------|-
A -|--------------------------|--------------------------|-
E -|--7--------7--7--------7--|--7--------7--7--------7--|-
| ^ ^ ^ ^ ^ ^ ^ ^ | ^ ^ ^ ^ ^ ^ ^ ^ |

Guitar during chorus:

E5 G5 A5 C5
| ^ ^ ^ ^ ^ ^ ^ ^ | ^ ^ ^ ^ ^ ^ ^ ^ |

E5 G5 A5 C5
| ^ ^ ^ ^ ^ ^ ^ ^ | ^ ^ ^ ^ ^ ^ ^ ^ |

E5 G5 A5 C5
| ^ ^ ^ ^ ^ ^ ^ ^ | ^ ^ ^ ^ ^ ^ ^ ^ |

B5
| ^ ^ ^ ^ ^ ^ ^ ^ | ^ ^ ^ ^ ^ ^ ^ ^ |

I would post the solo, if I could work out the timing on it
Properly.

The end is pretty much the same as the intro.

---
Transcribed by Matthew Green.
"Oh, I never wanted this. Now everything is destroyed."




Ваше мнение



Капча

Рекомендуем