Chis Isaak
Life will go on
Done by Migge Stockholm
Enjoy!!!
Intro: Em ,C ,G ,D/F#
---------------------------------------------------------------------------3--5---3--2--0--|
-------------------------------------------------------------------------------------------|
-----4---2---0---5-------4---2---0---2---4--2--0-------------------------------------------|
-----------------------------------------------------------4---2---------------------------|
-------------------------------------------------------------------------------------------|
-------------------------------------------------------------------------------------------|
-----------------------------------------------------------------------------3--5--7--|
-------------------------------------------------------------------------------------|
-----4---2---0---5-------4---2---0---2---4--2--0-------------------------------------|
-----------------------------------------------------------4---2---------------------|
-------------------------------------------------------------------------------------|
-------------------------------------------------------------------------------------|
Em C G D/F# Em
Broken skyes, heartakes flowers won't bend
Em C G D/F# Em
Say good bye, knowing that this is the end
Em B7 Em B7 Em
Tender dreams, shadows fall. Love too sweet, to recall
Em B7 Em C G D/F# Em
Dry your eyes, face the dawn. Life will go on, life will go on
Em C G D/F# Em
Holding on, thought that we still had a chance
Em C G D/F# Em
Letting go, this is the end of romance
Em B7 Em B7 Em
Broken Heart, find your way. Make it through, just this day.
Em B7 Em C G D/F# Em
Face the world, on your own. Life will go on, life will go on.
D C
There'll be blue skyes, there'll be true love.
B7 Em
Someday i'll hold you again.
D C B7 B7
There'll be blue skyes, your bitter world. Darling...
Em B7 Em B7 Em
Tender dreams, shadows fall. Love too sweet, to recall
Em B7 Em C G D/F# Em
Dry your eyes, face the dawn. Life will go on, life will go on
Em B7 Em B7 Em
Broken Heart, find your way. Make it through, just this day.
Em B7 Em C G D/F# Em
Face the world, on your own. Life will go on, life will go on.
C G D/F# Em
Life will go on, life will go on.
C G D/F# Em
Life will go on, life will go on.
I picked The lyrics from an MP3 song so it might not be correct.
But who cares...no one will hear the differense when they are drunk anyway.
Ciao...




Ваше мнение



Капча

Рекомендуем