Intro:
D:-------6--xx-5--6--------------3--2-----2-------
A:----------------------6--4--4--------------4----
E:-4--4-----------------------------------------3-

G:-------------------------------6--------8--6-\4-
D:-------6--xx-5--6-----------6--------8----------
A:----------------------6--4--------6-------------
E:-4--4-------------------------------------------

G#5 C#5 E5 [E5 - в 7-ой позиции]
G#5 C#5 D#5

Verse:
G#m C#m E
Мой приятель забросил школу
G#m C#m D#
Мой учитель забил на уроки
G#m C#m E
Мой участковый косо смотрит
G#m
...И я боюсь, как бы все это не кончилось плохо

Chorus:
G#5 D#5 C#5
Я на грани - помоги-помогите
G#5 G5 F5
Удержаться мне на последней орбите
G#5 D#5 C#5
Я на грани - я не чувствую меру
D#5 F5
Я сгораю, я вхожу в атмосферу

Verse:
Моя мама не дает мне денег
Она заставляет меня работать
Моя кошка упала с балкона
...И я боюсь, как бы все это не кончилось плохо

G#5 G#5 D#5 C#5 G#5 G#5 D#5 C#5 G#5 G#5 D#5 C#5 D#5 C#5

[Chorus]

Solo:
e:-------------------------------------------------------------------
B:-/9-----------9----/11------/13------/9-----------9----/11---------
G:-----------10----------------------------------10---------------/8-

e:--------------------------------------------18----------------20---
B:-/9-----------9----/11------/13------/16----------16---/17---------
G:-----------10------------------------------------------------------

Verse:
У нее СПИД - она скоро умрет
В подворотне нас, кажется, кто-то ждет
Он идет за тобой, все идет и идет
...И я боюсь

[Chorus]

Outro:
x4
D:-------6--xx-5--6-----:-6-6-
A:-------------------6--:-6-6-
E:-4--4-----------------:-4-4-




Ваше мнение



Капча