Intro:
C D
e------3---3---x---3-3-3-3---3---5--3---3---x---3-3-3-3--
B--6\5-5---5---x---5-5-5-5---5---7--5---5---x---5-5-5-5--
G------5---5---x---5-5-5-5---5---7--5---5---x---5-5-5-5--
D------5---5---x---5-5-5-5---5---7--5---5---x---5-5-5-5--
A------3---3---x---3-3-3-3---3---5--3---3---x---3-3-3-3--

Fill1:
B---------------9h10-10-----10-12-----------------------13^--------------------
----------
G-----5h7р5-7h9---------------------12-----10р9----------------13b14r13b14r----
12--------
D--/7-------------------------------------------12-10-----------------------14-
- ---12-10--

[Intro]+[Fill1]

Verse:
C [Intro] Fill2:
Остро, осторожно G------5------------
Крестиком вышей лицо D--5h7-----7---7-5--
[Fill2] A A G
И потрогай, не бойся Fill3:
C [Intro] [Fill3] B-----8---8-10---8--
Не останавливайся G--/9---9-----------

C [Intro]
Больно, не больно Fill4:
Петельки точно считай G--9р7----7-------------
[Fill4] A A G D------10-----10---7-5--
Не ошибешься
C [Fill5] Fill5:
Так кажется мне G--10----10----10----10-----
D-----10----10----10----10--
Chorus:
[ChorusRiff] ChorusRiff:
Dm G reрeat reрeat reрeat Csus2
Красные ниточки слез G-10--------|-11--------|-10-------- -3-
C D-----10-10-|-----10-10-|-----10-10- -3-
Все правильно, только -5-
F Csus2 -5-
Не надо всерьез -3-
Dm G -3-
Не надо надолго ниточки слов Fill6:
C
e--------13----------------------------13---------------
Сквозь бусинки глаз
B--/10------13-/10\8---------/10----10----13-/15р13-17--

G--------------------10-10-------12---------------------
[Fill6]

Verse:
Самое главное - строчки, иголочки, швы
Зашитые вены. Я плачу, ты улыбайся

Двигаясь плавно, только живые цветы
Цветные заплаты и на лице

[Chorus]

Solo:
4 раза

B---------------|---------------------13---12----12----------------------------
-----------------

G--------12-----|-------12----14---14---------12----12---12------------17---10b
-12b-14b-16b-17--

D--12h14----14^-|-12/14----14-------------------------------15-14--------------
-----------------

A---------------|-------------------------------------------------15-----------
-----------------

[Chorus]




Ваше мнение



Капча