Riff1:
e|--------------------------------------------
B|------------------------------------8-8--8--
G|--9-9---9---7-9---9-9---9---7-9---9---9--9--
D|--------------------------------------------

Riff2:
e|----------------------------------------
B|--8--7----------------8--7--------------
G|--------7-------------------7-----------
D|-----------9b10r9b10-----------5b6r5b6--
A|----------------------------------------

Verse:
Em C Em
Где душный ливень выжег звезды на песке
C D
Где в волнах топит солнце океан
Em G C D
Где в джунглях ждут опасность и обман
Фелуки неземные возникнут на заре

Chorus:
G5 D5 E5
Африка, мой милый мальчик, Африка
C5 G5 D5
Африка, сонные глаза

Verse:
Там ветер - радужный магнит
На серых скалах гравирует вечность
Смиренный мир, цветущий бесконечно
Там мрачный бог Вуду царит

[Chorus] e|--17b-r17vib--

[Riff1+Riff2]

D|--2---2-2---2-2---2-2--2-2--2-2--2-2--
A|--2---2-2---2-2---2-2--2-2--2-2--2-2--
E|--0---0-0---0-0---0-0--0-0--0-0--0-0--

[Chorus]

e|--17---17b-r17vib--
B|--16---16b-r16vib--

Ourto: Em Em Em




Ваше мнение



Капча