From: Riff [email protected]
Это вступление! дальше не втыкаю как! помогите подобрать если можете!
1|----------------------------------------------------
2|-----2-3-2--------2-3-2--------2-3-2--------2-3-2---
3|---4-------4----4-------4----4-------4----4-------4-
4|-5------------5------------4------------4-----------
5|----------------------------------------------------
6|----------------------------------------------------1
Первая часть...
1|----------------------------------------------------2|-----0-1-0--------0-1-0--------0-1-0--------0-1-0---3|---2-------2----2-------2----2-------2----2-------2-4|-3------------3-------------------------------------5|---------------------------0------------0-----------6|----------------------------------------------------
Вторая часть...(когда начинает петь)
аккорд F аккорд Am
1|-------1------------1-------------------------------2|-----1---1--------1---1----------1------------1-----3|---2-------2----2-------2------2---2--------2---2---4|-3------------3--------------2-------2----2-------2-5|---------------------------0------------0-----------6|----------------------------------------------------




Ваше мнение



Капча