The only one I know
This is my acoustic version...
intro x 4
e---------------------------|
b---------------------------|
g---------------------------|
d---------------------------|
a-8-9-10-10-10-x-10-10-x-10-|
e-6-7-8--8--8--x-8--8--x-8--|
use this fill to simulate the hammond
Call it Riff 1
e-x-----------x-x--------|
b------11-11--x-x---11-10|
g------12-12--x-x---12-10|
d------10-10--x-x---10-10|
a-x-----------x-x--------|
e-8-8---------x-x--------|
Fill 1 - after 1st chorus
e-x---------|-----------|
b-x---------|-----------|
g-x---------|-----------|
d-3s5_______|-3s5_______|
a-3s5_______|-3s5_______|
e-1s3_______|-1s3_______|
Fill 2 - (2nd guitar over chorus)
e---6--8--8-8-8-8-8-8-8-8:||
b-8----------------------:||
g------------------------:||
d------------------------:||
a------------------------:||
e------------------------:||
Fill 3 (bass fill - play 4 x)
e-x-----------------|
b-x-----------------|
g-3s5-5-5-x-5-5-5-5-|
d-3s5-5-5-x-5-5-5-5-|
a-1s3-3-3-x-3-3-3-3-|
e-x-----------------|
Solo
C7 C7 Eb F
e-|---------------|---------------|--------------------|
b-|---------------|---------------|--------------------|
g-|--8------------|--8------------|--------------------|
d-|-----10--------|------10-----10|8---------8-10-10-10|
a-|---------------|---------------|--10-8-10-----------|
e-|---------------|---------------|--------------------|
C7 C7
e-|------------------------|---------------------------|
b-|------------------------|---------------------------|
g-|-8----------------------|-8-------------------------|
d-|---10-10-10-10-10-10-10-|---10-10-10-10-10-10-10--10|
a-|------------------------|---------------------------|
e-|------------------------|---------------------------|
C7 Eb F C7
e-|-------------------------|------------|11--8-------|
b-|-------------------------|-------11---|------------|
g-|-----------------------8-|12----------|------------|
d-|8-----------8-10-10------|------------|------------|
a-|---10-8-10---------------|------------|------------|
e-|-------------------------|------------|------------|
Fill 4 -(outro fill)
e--------|-------|--------------------|
b--------|-------|--------------------|
g--------|-------|--5_________s




Ваше мнение



Капча