Back Room Window
================
The Charlatans
Intro Riff
D5 Eb5 E5 A5 D5 Eb5 E5 A5
E|------------------------------------|
B|------------------------------------|
G|--7-X-8-X-9--------7-X-8-X-9--------|
D|--7-X-8-X-9-X-7-7--7-X-8-X-9-X-7-7--|
A|--5-X-6-X-7-X-7-7--5-X-6-X-7-X-7-7--|
E|--------------5-5--------------5-5--|
G5 Ab5 A5 G5 Ab5 A5
E|------------------------------------|
B|------------------------------------|
G|------------------------------------|
D|--5-X-6-X-7-X-7-7--5-X-6-X-7-X-7-7--|
A|--5-X-6-X-7-X-7-7--5-X-6-X-7-X-7-7--|
E|--3-X-4-X-5-X-5-5--3-X-4-X-5-X-5-5--|
Verse Riff
D E D E
E|--2-X-2-0------------------2-X-2-0-----------------|
B|--3-X-3--0-----------------3-X-3--0----------------|
G|--2-X-2---1---1h2-1h2p1----2-X-2---1---1h2-1h2p1---|
D|--0-X-0----2------------2--0-X-0----2------------2-|
A|------------2------------------------2-------------|
E|-------------0------------------------0------------|
G A G A
E|--3--3--0----------3--3--0------|
B|--3--3---2---------3--3---2-----|
G|--0--0----2--------0--0----2----|
D|--0--0-----2-------0--0-----2---|
A|--2--2------0------2--2------0--|
E|--3--3-------------3--3---------|
Verse One
=========
D E D E
Lookin in through the back room window,
G A G A
Just to see what's happening here,
D E D E
See the sparks fly, I know, in your glory,
G A G A
I get opinions I get the stories.
A D G
Lookin out from the back room window,
A D G
Just to see where I go and I will go,
A Em
I wish you could see,
G A D G
You never could be happy without me.
Verse Two
=========
Freeze in a nodulant(?) county,
All the walls come tumbling down,
See the past and the future behind me,
I could fing the sweet drum and swallow the round.
Waking up as tht melody calls me,
I can fly down oceans easy,
I can wait, swim anywhere to be where love grows.
D5 Eb5 E5 A5 (x2)
Chorus
======
G Bm D
She's drawing all the spikes from me,
A
I've never felt so clean. (x2)
Second time round this riff is played instead of the A chord.
E|------7-----5-----2-----------------------|
B|-------------------------7----5---0----5--|
G|--7/9---9\7---7\4-------------------------|
D|----------------------/9---/7---2---/7----|
A|------------------------------------------|
E|------------------------------------------|
Organ solo
==========
D5 Eb5 E5 A5 D5 Eb5 E5 A5
E|------------------------------------------|
B|-------------------8--8-------------------|
G|--9-----------7-9---------9--7h9p7--------|
D|------------9-----------------------9--7--|
A|------------------------------------------|
E|------------------------------------------|
G5 Ab5 A5 G5 Ab5 A5
E|----------------------------------|
B|----------------------------------|
G|----------------------------------|
D|-------------5--7--7--5-----------|
A|--7\5/7--5/7-------------7\5/7----|
E|----------------------------------|
Verse Three
===========
Drivin South through the pak it belies eye spy(?)
In the division on the east side of town,
Feel the life and feel the pulse and arouse me,
All the walls come tumbling down.
Lookin out from the back room window,
Just to see where you go and I will go,
I wish you could see,
You never could be happy without me.
D5 Eb5 E5 A5 (x2)
Chorus
======
She's drawing all the spikes from me,
I've never felt so clean.
She's drawing all the spikes from me,
I've never felt so clean.
She's tearing all the spikes from me,
I've never felt so clean.
Outro Guitar Solo
=================
G Bm
E|----------------------------------------------|
B|-6----6--6--6--6--6--6------------------------|
G|-7b10_10_10_10_10_10_10r7---7-7---7-7---------|
D|--------------------------9-----9-----9-----7-|
A|----------------------------------------7h9---|
E|----------------------------------------------|
D A
E|-------------------------------------------------------|
B|---------------------------------10---10---10-10-10-10-|
G|-----7---7-----7---7-----7---7-9-9--9-9--9-9--9--9--9--|
D|-----7-7-7-----7-7-7-----7-7-7---11---11---11-11-11-11-|
A|-7h9---9---7h9---9---7h9---9---------------------------|
E|-------------------------------------------------------|
G Bm
E|-------------------------------------------------|
B|-------7---7---7-----7--------7---7---7----------|
G|-9p7---7---7---7-----7--9p7---7---7---7----------|
D|-----9---9---9---7h9--------9---9---9---9-----7--|
A|------------------------------------------7h9----|
E|-------------------------------------------------|
D A
E|-------------------------------------|
B|-7-7---------------------------------|
G|-7-7----------------------6-6-6-6----|
D|-9-9-9p7---9p7---7-----7--7-7-7-7----|
A|---------9-----9----7--7--7-7-7-7----|
E|--------------------5--5----5-5-5----|
G Bm
E|-------------------------------------------------------|
B|-6----6--7---7-6----6--7---7-6----6--7---7-7---7-------|
G|-7b10_10-7---7-7b10_10-7---7-7b10_10-7---7-7---7-------|
D|-----------9-------------9-------------9-----9---9p7---|
A|-----------------------------------------------------9-|
E|-------------------------------------------------------|
D A
E|------------------------------------------|
B|------------------------------------------|
G|-----7---7-----7---7------9--9--9--9--9---|
D|-----7-7-7-----7-7-7------11-11-11-11-11--|
A|-7h9---9---7h9---9---9-7--12-12-12-12-12--|
E|------------------------------------------|
G Bm
E|------------------------------------------------|
B|-----7---7-----7---7---------7---7---7---7-7-7--|
G|-----7-7-7-----7-7-7-7h9p7---7---7---7---7-7-7--|
D|-7h9---9---7h9---9---------9---9---9---9-9-9-9--|
A|------------------------------------------------|
E|------------------------------------------------|
D A
E|---------------------------||
B|---------------------------||
G|-7-7-----------------------||
D|-9-9--9p7---7---7-----7----||
A|----------9---9---9---7----||
E|----------------------5----||




Ваше мнение



Капча