Подбор табов этой песни - авторская работа Владимира Зайцева

Solo:
E||--2--3-2----------------------|
B||---------3-----3-3-2-3-2------|
G||------------4------------4----|
D||---------------------------4--|
A||------------------------------|
E||------------------------------|
Нm
Твой отец приемщик стеклопосуды,
E
Твоя мать уборщица в посольстве,
Нm
Он сын твоего отца, но тебе не брат,
E
Дура ты решила жить с ними по совести...
Пр-в:
A F#
ААА- ААА !!!
Нm E
Белая ворона !
Нm E
Белая ворона !

Riff:
Нm E
5|-------0---------0----------|
5|---0-2---2--------2-0-------|
6|-2--------------------2-0---|

Они опять тебя пригласили на флэт,
Неужто на этом свихнулся весь свет,
Все трое захотели остаться с тобой,
Ты послала их на, убежала домой.
Пр-в:
Они красивые парни, мужчины что надо,
На работе дерьмом марают бумагу,
Их подруги-заразы, все лезут в артистки,
Запишись им назло на курсы трактористок.
Пр-в:
Слава слушает Севу, Дима с Витей - БиБиСи,
Они знают все, о чем не спроси,
Тебе противно то, о чем они говорят,
Приходи ко мне ночью, будем слушать маяк.
Solo:
Пр-в: 2р




Ваше мнение



Капча