-------------------------------------------------------------------------------
Trippin Laces - Carolines Spine
-------------------------------------------------------------------------------

Tabbed by:BRADY THOMPSON
Email: [email protected]

Tuning:Standard

Intro
e|-------------------------------------------------------------------------9--|
B|9-----9-----9--10--9--------12-----10----9------9-------9--10--9------------|
G|-9-9----9-9-----------9-9-9----9------9----9-9---9-9--------------9-9-9-----|
D|----------------------------------------------------------------------------|
A|----------------------------------------------------------------------------|
E|----------------------------------------------------------------------------|

Verse shower isn't warm enough
e|-----------------------------------------------------x----------------------|
B|-----------------------------------------------------x----------------------|
G|-----------------------------------------------------x----------------------|
D|-7-7-7-7-7----7----7----7-7-7-7-7-------PM-----------x-------5--bunch of----|
A|-7-7-7-7-7----7----7----7-7-7-7-7----fast riff-------x-------5---times------|
E|-5-5-5-5-5----5----5----5-5-5-5-5---0-2-3-7-5-3------x-------3--------------|

(I dont know if I was born this way........)
e|---------------------------------------------------------------------------|
B|---------------------------------------------------------------------------|
G|--with phaser-like --------------------------------------------------------|
D|-------effect----------6X--------------------------------------------------|
A|---------------------------------------------------------------------------|
E|--0--2--3--5---------------------------------------------------------------|
verse again

THE REST IS PRETTY EASY, JUST BASED OFF THESE RIFFS


| / slide up
| slide down
| h hammer-on
| p pull-off
| ~ vibrato
| + harmonic
| x Mute note
===============================================================================





Ваше мнение



Капча