Caroline's Spine - Sullivan
This is just a killer tune. I found a similar tab on a Caroline's
Spine fan site and after checking it out I played it and it sounds very
kickass! It looks like Guitar 1 is Jimmy and Guitar 2 is Mark. So sit
down and learn to play this one... its easy and its worth it!
originally tabbed by Mark Haugh
tested and transcribed by Jim Huskey ([email protected])
The tab looks screwed up but its cause it was originally wider than it
is now. If you have two guitars, play the tab simultaneously straight
through. Otherwise just play the individual guitar part straight through.
There arent any pauses indicated by the tab except where there isnt anything
written.
Easiest thing to do is to listen to the song while you play so you get the
timing down and stuff like that.
Guitar 1 Intro
e:-----------------------------------------------------------|
B:-----------------------------------------------------------|
G:-----------------------------------------------------------|
D:---------------------------14-14-14-17-17-17-14-14---------|
A:--14-14-14-14-14-14-14-14--15-15-15-15-15-15-15-15-14-14-14|
E:--0--0--0--0--0--0--0--0---------------------------0--0--0-|
e:------------------------|
B:------------------------|
G:------------------------|
D:------------------------|
A:-14-14-14-14-14---------|
E:-0--0--0--0--0--15-b(17)|
Guitar 2
e:------------------------------------------------------------|
B:------------------------------------------------------------|
G:------------------------------------------------------------|
D:------------------------------------------------------------|
A:------------------------------------------------------------|
E:------------------------------------------------------------|
e:----------------------|
B:----------------------|
G:----------------------|
D:----------------------|
A:----------------------|
E:----------------------|
Guitar 1
e:--------------------------------------------------|
B:--------------------------------------------------|
G:--------------------------------------------------|
D:--------------------------14-14-14-17-17-17-14-14-|
A:--14-14-14-14-14-14-14-14-15-15-15-15-15-15-15-15-|
E:--0--0--0--0--0--0--0--0--------------------------|
e:-------------------------|
B:-------------------------|
G:-------------------------|
D:-------------------------|
A:----14-14-14-14-14-14-14-|
E:----0--0--0--0--0--0--0--|
Guitar 2
e:--14-14-14-14-------------------------------------|
B:--------------15-15-15-15-------------------------|
G:--------------------------12-12-12-12-12-12-12----|
D:--------------------------------------------------|
A:--------------------------------------------------|
E:--------------------------------------------------|
e:-15-14-14-14-14----------|
B:----------------15-15-15-|
G:-------------------------|
D:-------------------------|
A:-------------------------|
E:-------------------------|Guitar 1
e:--------------------------------------------------------|
B:--------------------------------------------------------|
G:--------------------------------------------------------|
D:---14-14-14-17-17-17-14-14-14---------------------------|
A:14-15-15-15-15-15-15-15-15-15----14-14-14-14-14-14-14-14|
E:0--------------------------------0--0--0--0--0--0--0--0-|
e:---------------------------|
B:---------------------------|
G:---------------------------|
D:-14-14-14-17-17-17-14-14---|
A:-15-15-15-15-15-15-15-15-12|
E:---------------------------|
Guitar 2
e:---------------------------------14-14-14-14------------|
B:15-------------------------------------------15-15-15-15|
G:---12-12-12-12-12-12-12-12------------------------------|
D:--------------------------------------------------------|
A:--------------------------------------------------------|
E:--------------------------------------------------------|
e:---------------------------|
B:---------------------------|
G:-12-12-12-12-12-12-12-12-11|
D:---------------------------|
A:---------------------------|
E:---------------------------| Verses (First Verse-only play third and 4th line)
Guitar 1
e:---------------------------------------------------|
B:---------------------------------------------------|
G:---------------------------------------------------|
D:---------------------------------------------------|
A:---------------------------------------------------|
E:---------------------------------------------------|
e:------------------------|
B:------------------------|
G:------------------------|
D:------------------------|
A:------------------------|
E:------------------------|
Guitar 2
e:------2-2-3-2-2-2-3-2------------------------------|
B:------3-3-3-3-3-3-3-3------------------------------|
G:-----------------------------G------------C-----X3-|
D:---------------------------------------------------|
A:---------------------------------------------------|
E:---0-----------------------------------------------|
e:--2-2-3-----------------|
B:--3-3-3-----------------|
G:------------------------|
D:-----------D------A-----|
A:------------------------|
E:-0----------------------|
Section before verses
Guitar 1
e:-----:------------------------------------------------|
B:-----:------------------------------------------------|
G:-----:------------------------------------------------|
D:-----:-------------------------14-14-14-17-17-17-14-14|
A:-----:-14-14-14-14-14-14-14-14-15-15-15-15-15-15-15-15|
E:-----:-0--0--0--0--0--0--0--0-------------------------|
e:----------------------------|
B:----------------------------|
G:----------------------------|
D:-------------------------14-|
A:-14-14-14-14-14-14-14-14-15-|
E:-0--0--0--0--0--0--0--0-----|
Guitar 2
e:-----:-14-14-14-14----------------------------------15|
B:-----:-------------15-15-15-15------------------------|
G:-----:-------------------------12-12-12-12-12-12-12---|
D:-C---:------------------------------------------------|
A:-----:------------------------------------------------|
E:-----:------------------------------------------------|
e:-14-14-14-14----------------|
B:-------------15-15-15-15----|
G:-------------------------12-|
D:----------------------------|
A:----------------------------|
E:----------------------------|
Guitar 1
e:--------------------------------------------|
B:--------------------------------------------|
G:--------------------------------------------|
D:14-14-17-17-17-14-14------------------------|
A:15-15-15-15-15-15-15-14-14-14-14-14-14-14-14|
E:---------------------0--0--0--0--0--0--0--0-|
e:---------------------------------------|
B:---------------------------------------|
G:---------------------------------------|
D:-14-14-14-17-17-17-14-14---------------|
A:-15-15-15-15-15-15-15-15-14-14-14-14-14|
E:-------------------------0--0--0--0--0-|
Guitar 2
e:---------------------14-14-14-14-------------|
B:---------------------------------15-15-15-15-|
G:12-12-12-12-12-12-12-------------------------|
D:---------------------------------------------|
A:---------------------------------------------|
E:---------------------------------------------|
e:---------------------15-14-14-14-14---|
B:------------------------------------15|
G:12-12-12-12-12-12-12------------------|
D:--------------------------------------|
A:--------------------------------------|
E:--------------------------------------|
Guitar 1 Chorus
e:-----------------------------------------:
B:-----------------------------------------:
G:-----------------------------------------:
D:-----------14-14-14-17-17-17-14-14-12----:
A:--14-14-14-15-15-15-15-15-15-15-15-------:
E:--0--0--0--------------------------------:
e:----------------------------------------|
B:----------------------------------------|
G:--E--------------------------D----------|
D:----------------------------------------|
A:----------------------------------------|
E:----------------------------------------|
Guitar 2
e:-----------------------------------------:
B:--15-15-15-------------------------------:
G:-----------12-12-12-12-12-12-12-12-11----:
D:-----------------------------------------:
A:-----------------------------------------:
E:-----------------------------------------:
e:----------------------------------------|
B:----------------------------------------|
G:------11-----11-----11----------9-----9-|
D:---9------9------9-----------7-----7----|
A:----------------------------------------|
E:----------------------------------------|
Guitar 1
e:--------------------------------------------------|
B:--------------------------------------------------|
G:-----C-------------------------E------------------|
D:--------------------------------------------------|
A:--------------------------------------------------|
E:--------------------------------------------------|
e:--------------------------------|
B:--------------------------------|
G:-D---------C--------------------|
D:--------------------------------|
A:--------------------------------|
E:--------------------------------|
Guitar 2
e:--------------------------------------------------|
B:--------------------------------------------------|
G:--------7----7----7----7---------11---11---11-----|
D:-----5----4----5----4----------9----9----9--------|
A:--------------------------------------------------|
E:--------------------------------------------------|
e:--------------------------------|
B:--------------------------------|
G:---9---9-----7---7---7---7------|
D:-7---7-----5---4---5---4--------|
A:--------------------------------|
E:--------------------------------|
Guitar 1
e:------------------------------------------|
B:------------------------------------------|
G:---E----------------D--------A------------|
D:------------------------------------------|
A:------------------------------------------|
E:------------------------------------------|
e:----------------------------------------|
B:----------------------------------------|
G:---C----------------------------E-------|
D:----------------------------------------|
A:----------------------------------------|
E:----------------------------------------|
Guitar 2
e:------------------------------------------|
B:------------------------------------------|
G:-----11----11--11-----9---9----4---4---4--|
D:---9-----9---9------7---7----2---2---2----|
A:------------------------------------------|
E:------------------------------------------|
e:----------------------------------------|
B:----------------------------------------|
G:-----7---7---7---7---7---7--------11----|
D:--5----5---5---5---5---5--------9-----9-|
A:----------------------------------------|
E:----------------------------------------|Guitar 1 Slow Section
e:------------------------------------------:
B:------------------------------------------:
G:----------D-------------A---------C-------:
D:------------------------------------------:
A:------------------------------------------:
E:------------------------------------------:
e:----------------------------------------|
B:----------------------------------------|
G:-----E------------------C---------------|
D:----------------------------------------|
A:----------------------------------------|
E:----------------------------------------|Guitar 2
e:------------------------------------------:
B:------------------------------------------:
G:11---11----9---9----9----4---4------7-----:
D:---9-----7---7----7----2---2------5-------:
A:------------------------------------------:
E:------------------------------------------:
e:----------------------------------------|
B:----------------------------------------|
G:-------11---11---11---7----11----11---11|
D:-----9----9----9----5----9----9-----9---|
A:----------------------------------------|
E:----------------------------------------|
Guitar 1
e:-----------------------------------------------|
B:-----------------------------------------------|
G:--------------E-------------------------G------|
D:-----------------------------------------------|
A:-----------------------------------------------|
E:-----------------------------------------------|

e:--------------------------:--------|
B:--------------------------:--------|
G:-------------C------------:---E----|
D:--------------------------:--------|
A:--------------------------:--------|
E:--------------------------:--------|
Guitar 2
e:------------:----------------------------------|
B:------------:----------------------------------|
G:-----7------:----11----11----11---11------14---|
D:--5---------:--9----9------9----9------12----12|
A:------------:----------------------------------|
E:------------:----------------------------------|
e:--------------------------:--------|
B:--------------------------:--------|
G:-14----14----12------X3---:-----11-|
D:----12----12--------------:---9----|
A:--------------------------:--------|
E:--------------------------:--------|
Guitar 1
e:---------------------------------------------|
B:---------------------------------------------|
G:----------D----------------------2-----------|
D:---------------------------------2-----------|
A:---------------------------------0-----------|
E:---------------------------------------------|
e:-------------------------------------|
B:-------------------------------------|
G:--0--2-------0-2---------------------|
D:--0--2-------0-2---------------------|
A:-----0---------0---------------------|
E:-------------------------------------|
Guitar 2
e:---------------------------------------------|
B:---------------------------------------------|
G:--11---11-----14----14----14-----2-----------|
D:9----9-----12----12----12--------2-----------|
A:---------------------------------0-----------|
E:---------------------------------------------|
e:-------------------------------------|
B:-------------------------------------|
G:--0--2------16-16-16-16-16-14-14-14-1|
D:--0--2------14-14-14-14-14-14-14-14-1|
A:-----0-------------------------------|
E:-------------------------------------|
Guitar 1
e:------------------------------------------------------------------|
B:------------------------------------------------------------------|
G:-------------------0----2-----------------------------------------|
D:-------------------0----2-----------------------------------------|
A:------------------------0-----------------------------------------|
E:------------------------------------------------------------------|
Guitar 2
e:------------------------------------------------------------------|
B:------------------------------------------------------------------|
G:4-14-14-14-14-14---16-16-16-16-16-16-16-16-14-14-14-14-14-14-14-14|
D:4-14-14-14-14-14---14-14-14-14-14-14-14-14-14-14-14-14-14-14-14-14|
A:------------------------------------------------------------------|
E:------------------------------------------------------------------|





Ваше мнение



Капча