Attention Please
Caroline's Spine
All Guitars tuned E Flat. Half Step Down.
Lyrics Added at bottom of Document.
Intro - Guitar 1
Eb :------------------|----------------|------------------|
Bb :------------------|----------------|------------------|
Gb :------------------|----------------|------------------|
Db :------------------|----------------|------------------|
Ab :------------------|----------------|------------------|
Eb :------------------|----------------|------------------|
Guitar 2
Eb :------------------|----------------|------------------|
Bb :------------------|----------------|------------------|
Gb :--4---4-------6---|6-7-6-------4---|--4---4-------6---|
Db :6---6---(7)-7---7-|------7-6-6-----|6---6---(7)-7---7-|
Ab :------------------|----------------|------------------|
Eb :------------------|----------------|------------------|
=============================================================================

Eb :----------------|
Bb :----------------|
Gb :----------------|
Db :----------------|
Ab :----------------|
Eb :----------------|

Eb :----------------|
Bb :----------------|
Gb :6-7-6-------4---|
Db :------7-6-6-----|
Ab :----------------|
Eb :----------------|
=============================================================================

Eb :------------------|----------------|------------------|
Bb :------------------|----------------|------------------|
Gb :-------------7----|----------------|-------------7----|
Db :----4------7---7--|----7--------7--|----4------7---7--|
Ab :--4---4--5--------|--7---7----7---7|--4---4--5--------|
Eb :2-----------------|5--------4------|2-----------------|


Eb :------------------|----------------|------------------|
Bb :------------------|----------------|------------------|
Gb :--4---4-------6---|6-7-6-------4---|--4---4-------6---|
Db :6---6---(7)-7---7-|------7-6-6-----|6---6---(7)-7---7-|
Ab :------------------|----------------|------------------|
Eb :------------------|----------------|------------------|
=============================================================================

Eb :----------------|
Bb :----------------|
Gb :----------------|
Db :----7-------7---|
Ab :--7---7---7---7-|
Eb :5-------4-------|

Eb :----------------|
Bb :----------------|
Gb :6-7-6-------4---|
Db :------7-6-6-----|
Ab :----------------|
Eb :----------------|
=============================================================================
Vocals start here
Eb :------------------|----------------|------------------|
Bb :------------------|----------------|------------------|
Gb :-------------7----|----------------|-------------7----|
Db :----4------7---7--|----7--------7--|----4------7---7--|
Ab :--4---4--5--------|--7---7----7---7|--4---4--5--------|
Eb :2-----------------|5--------4------|2-----------------|

Eb :------------------|----------------|------------------|
Bb :------------------|----------------|------------------|
Gb :--4---4-------6---|6-7-6-------4---|--4---4-------6---|
Db :6---6---(7)-7---7-|------7-6-6-----|6---6---(7)-7---7-|
Ab :------------------|----------------|------------------|
Eb :------------------|----------------|------------------|
=============================================================================

Eb :----------------|------------------|----------------|
Bb :----------------|------------------|----------------|
Gb :----------------|--------------7---|----------------|
Db :----7--------7--|----4------7----7-|----7--------7--|
Ab :--7---7----7---7|--4---4--5--------|--7---7----7---7|
Eb :5--------4------|2-----------------|5--------4------|


Eb :----------------|------------------|----------------|
Bb :----------------|------------------|----------------|
Gb :6-7-6-------4---|--4---4-------6---|6-7-6-------4---|
Db :------7-6-6-----|6---6---(7)-7---7-|------7-6-6-----|
Ab :----------------|------------------|----------------|
Eb :----------------|------------------|----------------|
=============================================================================
Full Band In with Heavy Distortion
Eb :----------------|----------------|
Bb :----------------|----------------|
Gb :*---------------|----------------|
Db :*---------------|----------------|
Ab :----------------|----------------|
Eb :5-2-xx2-xx2-0-2-|4-2-xx2-xx2-0-2-|

Eb :----------------|----------------|
Bb :----------------|----------------|
Gb :*---------------|----------------|
Db :*---------------|----------------|
Ab :----------------|----------------|
Eb :5-2-xx2-xx2-0-2-|4-2-xx2-xx2-0-2-|
=============================================================================

Eb :----------------|----------------|----------------|----------------|
Bb :----------------|----------------|----------------|----------------|
Gb :----------------|----------------|----------------|----------------|
Db :----------------|------------5---|----------------|----------------|
Ab :4---------------|------------5---|----------------|----------------|
Eb :--2-xx2-xx2-0-2-|4-2-xx2-2-0-3---|5-2-xx2-xx2-0-2-|4-2-xx2-xx2-0-2-|


Eb :----------------|----------------|----------------|----------------|
Bb :----------------|----------------|----------------|----------------|
Gb :----------------|----------------|----------------|----------------|
Db :----------------|------------5---|----------------|----------------|
Ab :4---------------|------------5---|----------------|----------------|
Eb :--2-xx2-xx2-0-2-|4-2-xx2-2-0-3---|5-2-xx2-xx2-0-2-|4-2-xx2-xx2-0-2-|
=============================================================================

Eb :----------------|----------------|
Bb :----------------|----------------|
Gb :----------------|----------------|
Db :----------------|----2-----------|
Ab :4---------------|----2-----------|
Eb :--2-xx2-xx2-0-2-|4-2-0-----------|

Eb :----------------|----------------|
Bb :----------------|----------------|
Gb :----------------|----------------|
Db :----------------|----2-----------|
Ab :4---------------|----2-----------|
Eb :--2-xx2-xx2-0-2-|4-2-0-----------|
=============================================================================
Verse 1 Vocals
Eb :----------------|----------------|----------------|----------------|
Bb :----------------|----------------|----------------|----------------|
Gb :----------------|----------------|----------------|----------------|
Db :4---------------|----------------|----------------|----------------|
Ab :4---------------|----------------|--------------6-|----------------|
Eb :2---------------|----------------|0-0-0-0-0-0-0---|4-------5---0---|
V
Eb :----------------|----------------|----------------|----------------|
Bb :----------------|----------------|----------------|----------------|
Gb :----------------|----------------|----------------|----------------|
Db :4---------------|----------------|----------------|----------------|
Ab :4---------------|----------------|--------------6-|----------------|
Eb :2---------------|----------------|0-0-0-0-0-0-0---|4-------5---0---|
=============================================================================

Eb :----------------|----------------|----------------|----------------|
Bb :----------------|----------------|----------------|----------------|
Gb :----------------|----------------|----------------|----------------|
Db :----------------|----------------|----------------|----------------|
Ab :----------------|----------------|--------------6-|------------7---|
Eb :2-2-xx2-xx2-xxxx|2-2-xx2-xx2-xxxx|0-0-0-0-0-0-0---|4-------5-------|


Eb :----------------|----------------|----------------|----------------|
Bb :----------------|----------------|----------------|----------------|
Gb :----------------|----------------|----------------|----------------|
Db :----------------|----------------|----------------|----------------|
Ab :----------------|----------------|--------------6-|------------7---|
Eb :2-2-xx2-xx2-xxxx|2-2-xx2-xx2-xxxx|0-0-0-0-0-0-0---|4-------5-------|
=============================================================================
Chorus
Eb :----------------|----------------|----------------|----------------|
Bb :3-------------3-|----------------|3-------------3-|----------------|
Gb :2-------------2-|4-------------4-|2-------------2-|4-------------4-|
Db :0-------------0-|4-------------4-|0-------------0-|4-------------4-|
Ab :----------------|2-------------2-|----------------|2-------------2-|
Eb :----------------|----------------|----------------|----------------|

Eb :------0---------|----------------|------0---------|----------------|
Bb :3---------3-----|------2---------|3---------3-----|------2---------|
Gb :2-------------2-|4---------4-----|2-------------2-|4---------4-----|
Db :0---------------|4-------------4-|0---------------|4-------------4-|
Ab :----------------|2---------------|----------------|2---------------|
Eb :----------------|----------------|----------------|----------------|
=============================================================================

Eb :----------------|----------------|
Bb :----------------|----------------|
Gb :2-------------2-|0-----0---------|
Db :2-------------2-|0---------0-----|
Ab :0-------------0-|x---------------|
Eb :----------------|3-------------3-|

Eb :----------------|----------------|
Bb :------0---------|----------------|
Gb :2---------2-----|0-----0---------|
Db :2-------------2-|0---------0-----|
Ab :0---------------|x---------------|
Eb :----------------|3-------------3-|
=============================================================================

Eb :----------------|----------------|----------------|----------------|
Bb :----------------|----------------|----------------|----------------|
Gb :----------------|----------------|----------------|----------------|
Db :----------------|----------------|----------------|------------5---|
Ab :----------------|----------------|4---------------|------------5---|
Eb :5-2-xx2-xx2-0-2-|4-2-xx2-xx2-0-2-|--2-xx2-xx2-0-2-|4-2-xx2-2-0-3---|


Eb :----------------|----------------|----------------|----------------|
Bb :----------------|----------------|----------------|----------------|
Gb :----------------|----------------|----------------|----------------|
Db :----------------|----------------|----------------|------------5---|
Ab :----------------|----------------|4---------------|------------5---|
Eb :5-2-xx2-xx2-0-2-|4-2-xx2-xx2-0-2-|--2-xx2-xx2-0-2-|4-2-xx2-2-0-3---|
=============================================================================

Eb :----------------|----------------|----------------|----------------|
Bb :----------------|----------------|----------------|----------------|
Gb :----------------|----------------|----------------|----------------|
Db :----------------|----------------|----------------|----2-----------|
Ab :----------------|----------------|4---------------|----2-----------|
Eb :5-2-xx2-xx2-0-2-|4-2-xx2-xx2-0-2-|--2-xx2-xx2-0-2-|4-2-0-----------|

Eb :----------------|----------------|----------------|----------------|
Bb :----------------|----------------|----------------|----------------|
Gb :----------------|----------------|----------------|----------------|
Db :----------------|----------------|----------------|----2-----------|
Ab :----------------|----------------|4---------------|----2-----------|
Eb :5-2-xx2-xx2-0-2-|4-2-xx2-xx2-0-2-|--2-xx2-xx2-0-2-|4-2-0-----------|
=============================================================================
Verse 2
Eb :----------------|----------------|----------------|----------------|
Bb :----------------|----------------|----------------|----------------|
Gb :----------------|----------------|----------------|----------------|
Db :4---------------|----------------|----------------|----------------|
Ab :4---------------|----------------|--------------6-|----------------|
Eb :2-2-xx2-xx2-xxxx|2-2-xx2-xx2-xxxx|0-0-0-0-0-0-0---|4-------5---0---|
V
Eb :----------------|----------------|----------------|----------------|
Bb :----------------|----------------|----------------|----------------|
Gb :----------------|----------------|----------------|----------------|
Db :4---------------|----------------|----------------|----------------|
Ab :4---------------|----------------|--------------6-|----------------|
Eb :2---------------|----------------|0-0-0-0-0-0-0---|4-------5---0---|
=============================================================================

Eb :----------------|----------------|----------------|----------------|
Bb :----------------|----------------|----------------|----------------|
Gb :----------------|----------------|----------------|----------------|
Db :----------------|----------------|----------------|----------------|
Ab :----------------|----------------|--------------6-|------------7---|
Eb :2-2-xx2-xx2-xxxx|2-2-xx2-xx2-xxxx|0-0-0-0-0-0-0---|4-------5-------|


Eb :----------------|----------------|----------------|----------------|
Bb :----------------|----------------|----------------|----------------|
Gb :----------------|----------------|----------------|----------------|
Db :----------------|----------------|----------------|----------------|
Ab :----------------|----------------|--------------6-|------------7---|
Eb :2-2-xx2-xx2-xxxx|2-2-xx2-xx2-xxxx|0-0-0-0-0-0-0---|4-------5-------|
=============================================================================
Chorus
Eb :----------------|----------------|----------------|----------------|
Bb :3-------------3-|----------------|3-------------3-|----------------|
Gb :2-------------2-|4-------------4-|2-------------2-|4-------------4-|
Db :0-------------0-|4-------------4-|0-------------0-|4-------------4-|
Ab :----------------|2-------------2-|----------------|2-------------2-|
Eb :----------------|----------------|----------------|----------------|

Eb :------0---------|----------------|------0---------|----------------|
Bb :3---------3-----|------2---------|3---------3-----|------2---------|
Gb :2-------------2-|4---------4-----|2-------------2-|4---------4-----|
Db :0---------------|4-------------4-|0---------------|4-------------4-|
Ab :----------------|2---------------|----------------|2---------------|
Eb :----------------|----------------|----------------|----------------|
=============================================================================

Eb :----------------|----------------|
Bb :----------------|----------------|
Gb :2-------------2-|0---------------|
Db :2-------------2-|0---------------|
Ab :0-------------0-|x---------------|
Eb :----------------|3---------------|

Eb :----------------|----------------|
Bb :------0---------|----------------|
Gb :2---------2-----|0-----0---------|
Db :2-------------2-|0---------0-----|
Ab :0---------------|x---------------|
Eb :----------------|3-------------3-|
=============================================================================

Eb :----------------|----------------|----------------|----------------|
Bb :----------------|----------------|----------------|----------------|
Gb :----------------|----------------|----------------|----------------|
Db :----------------|----------------|----------------|------------5---|
Ab :----------------|----------------|4---------------|------------5---|
Eb :5-2-xx2-xx2-0-2-|4-2-xx2-xx2-0-2-|--2-xx2-xx2-0-2-|4-2-xx2-2-0-3---|


Eb :----------------|----------------|----------------|----------------|
Bb :----------------|----------------|----------------|----------------|
Gb :----------------|----------------|----------------|----------------|
Db :----------------|----------------|----------------|------------5---|
Ab :----------------|----------------|4---------------|------------5---|
Eb :5-2-xx2-xx2-0-2-|4-2-xx2-xx2-0-2-|--2-xx2-xx2-0-2-|4-2-xx2-2-0-3---|
=============================================================================
sliding up a
Eb :----------------|----------------|----------------|----------------|
Bb :----------------|----------------|----------------|----------------|
Gb :----------------|----------------|----------------|----------------|
Db :----------------|----------------|----------------|----------------|
Ab :----------------|----------------|4---------------|----------------|
Eb :5-2-xx2-xx2-0-2-|4-2-xx2-xx2-0-2-|--2-xx2-xx2-0-2-|4-2-------------|

Eb :----------------|----------------|----------------|----------------|
Bb :----------------|----------------|----------------|----------------|
Gb :----------------|----------------|----------------|----------------|
Db :----------------|----------------|----------------|----------------|
Ab :----------------|----------------|4---------------|----------------|
Eb :5-2-xx2-xx2-0-2-|4-2-xx2-xx2-0-2-|--2-xx2-xx2-0-2-|4-2-------------|
=============================================================================
nd down n eck
Eb :------------------|----------------|------------------|
Bb :------------------|----------------|------------------|
Gb :------------------|----------------|------------------|
Db :*-----------------|----------------|------------------|
Ab :*-----------------|----------------|------------------|
Eb :*-----------------|----------------|------------------|
Bridge Section - Band Out.
This sec t ion gui tar panned to le ft speak e rs
Eb :------------------|----------------|------------------|
Bb :------------------|----------------|------------------|
Gb :--4---4-------6---|6-7-6-------4---|--4---4-------6---|
Db :6---6---(7)-7---7-|------7-6-6-----|6---6---(7)-7---7-|
Ab :*-----------------|----------------|------------------|
Eb :*-----------------|----------------|------------------|
=============================================================================

Eb :----------------|------------------|----------------|
Bb :----------------|------------------|----------------|
Gb :----------------|------------------|----------------|
Db :----------------|------------------|----------------|
Ab :----------------|------------------|----------------|
Eb :----------------|------------------|----------------|


Eb :----------------|------------------|----------------|
Bb :----------------|------------------|----------------|
Gb :6-7-6-------4---|--4---4-------6---|6-7-6-------4---|
Db :------7-6-6-----|6---6---(7)-7---7-|------7-6-6-----|
Ab :----------------|------------------|----------------|
Eb :----------------|------------------|----------------|
=============================================================================

Eb :------------------|----------------|
Bb :------------------|----------------|
Gb :------------------|----------------|
Db :------------------|----------------|
Ab :------------------|----------------|
Eb :------------------|----------------|

Eb :------------------|----------------|
Bb :------------------|----------------|
Gb :--4---4-------6---|6-7-6-------4---|
Db :6---6---(7)-7---7-|------7-6-6-----|
Ab :------------------|----------------|
Eb :------------------|----------------|
=============================================================================
Band In.
Eb :------------------|----------------|------------------|
Bb :------------------|----------------|------------------|
Gb :------------------|----------------|------------------|
Db :---------7--7-7-7-|----------------|---------7--7-7-7-|
Ab :4-4-4-4--5--5-5-5-|7-7-7-7-6-6-6-6-|4-4-4-4--5--5-5-5-|
Eb :2-2-2-2-----------|5-5-5-5-4-4-4-4-|2-2-2-2-----------|
Pan Effect Back to Normal here.
Eb :------------------|----------------|------------------|
Bb :------------------|----------------|------------------|
Gb :--4---4-------6---|6-7-6-------4---|--4---4-------6---|
Db :6---6---(7)-7---7-|------7-6-6-----|6---6---(7)-7---7-|
Ab :------------------|----------------|------------------|
Eb :------------------|----------------|------------------|
=============================================================================

Eb :----------------|------------------|----------------|
Bb :----------------|------------------|----------------|
Gb :----------------|------------------|----------------|
Db :----------------|---------7--7-7-7-|----------------|
Ab :7-7-7-7-6-6-6-6-|4-4-4-4--5--5-5-5-|7-7-7-7-6-6-6-6-|
Eb :5-5-5-5-4-4-4-4-|2-2-2-2-----------|5-5-5-5-4-4-4-4-|


Eb :----------------|------------------|----------------|
Bb :----------------|------------------|----------------|
Gb :6-7-6-------4---|--4---4-------6---|6-7-6-------4---|
Db :------7-6-6-----|6---6---(7)-7---7-|------7-6-6-----|
Ab :----------------|------------------|----------------|
Eb :----------------|------------------|----------------|
=============================================================================

Eb :------------------|----------------|------------------|
Bb :------------------|----------------|------------------|
Gb :------------------|----------------|------------------|
Db :---------7--7-7-7-|----------------|---------7--7-7-7-|
Ab :4-4-4-4--5--5-5-5-|7-7-7-7-6-6-6-6-|4-4-4-4--5--5-5-5-|
Eb :2-2-2-2-----------|5-5-5-5-4-4-4-4-|2-2-2-2-----------|

Eb :------------------|----------------|------------------|
Bb :------------------|----------------|------------------|
Gb :--4---4-------6---|6-7-6-------4---|--4---4-------6---|
Db :6---6---(7)-7---7-|------7-6-6-----|6---6---(7)-7---7-|
Ab :------------------|----------------|------------------|
Eb :------------------|----------------|------------------|
=============================================================================
Band Out....
Eb :----------------|------------------|----------------|
Bb :----------------|------------------|----------------|
Gb :----------------|------------------|----------------|
Db :----------------|---------7--7-7-7-|----------------|
Ab :7-7-7-7-6-6-6-6-|4-4-4-4--5--5-5-5-|7-7-7-7-6-6-6-6-|
Eb :5-5-5-5-4-4-4-4-|2-2-2-2-----------|5-5-5-5-4-4-4-4-|

Eb :----------------|------------------|----------------|
Bb :----------------|------------------|----------------|
Gb :6-7-6-------4---|--4---4-------6---|6-7-6-------4---|
Db :------7-6-6-----|6---6---(7)-7---7-|------7-6-6-----|
Ab :----------------|------------------|----------------|
Eb :----------------|------------------|----------------|
=============================================================================
Outro Se c tion
Eb :------------------|----------------|------------------|
Bb :------------------|----------------|------------------|
Gb :------------------|----------------|------------------|
Db :4--*--------------|----------------|------------------|
Ab :4--*--------------|----------------|------------------|
Eb :2--*--------------|----------------|------------------|


Eb :------------------|----------------|------------------|
Bb :------------------|----------------|------------------|
Gb :--4---4-------6---|6-7-6-------4---|--4---4-------6---|
Db :6---6---(7)-7---7-|------7-6-6-----|6---6---(7)-7---7-|
Ab :------------------|----------------|------------------|
Eb :------------------|----------------|------------------|
=============================================================================

Eb :----------------|------------------|----------------|
Bb :----------------|------------------|----------------|
Gb :----------------|------------------|----------------|
Db :----------------|------------------|----------------|
Ab :----------------|------------------|----------------|
Eb :----------------|------------------|----------------|

Eb :----------------|------------------|----------------|
Bb :----------------|------------------|----------------|
Gb :6-7-6-------4---|--4---4-------6---|6-7-6-------4---|
Db :------7-6-6-----|6---6---(7)-7---7-|------7-6-6-----|
Ab :----------------|------------------|----------------|
Eb :----------------|------------------|----------------|
=============================================================================

Eb :------------------|----------------|
Bb :------------------|----------------|
Gb :------------------|----------------|
Db :------------------|----------------|
Ab :------------------|----------------|
Eb :------------------|----------------|

Eb :------------------|----------------|
Bb :------------------|----------------|
Gb :--4---4-------6---|6-7-6-------4---|
Db :6---6---(7)-7---7-|------7-6-6-----|
Ab :------------------|----------------|
Eb :------------------|----------------|
=============================================================================

Your attention please all passengers
with confusion and comfort we live out our lives
but your reality has consequence
escape in front or behind me
down the center we score your slide...
Won't someone tell me why the hell we try to cover it up?
there's got to be another way
some kind of system to help me get close to my soul
when out of darkness came a light from
Inside you, inside me
tell you who you are
who you want to be
the line's been drawn
who's side you on?
Won't someone tell me how we live to be 75
there's got to be another way
some kind of system to tell me how I'm supposed to survive
when out of the darkness came a light from
Inside, you, it's inside me
tell you who you are
who you want to be
the line's been drawn
who's side you on?
Your attention please all passengers
with confusion and comfort we live out our lives
but our reality has consequence
escape in front or behind me
down the center we score your slide





Ваше мнение



Капча