TOOLS OF THE TRADE - Carcass - Tools of the Trade EP
Version 1.0 - October 2001
Transcribed by Lalith Vipulananthan ([email protected])
Solo originally transcribed by John McCarron
Tuning (Low to High) - B E A D F# B
Intro
|---------------------|--------------------------------|
|-----------------7-9-|-------------------------9-10---|
|-4-------7-6---7-5-7-|-6---6-6-6---6-6-9---98-7-9----|
|-2-------5-4---5-----|-4---4-4-4---4-4-7---76--------|
A1
|-------------------------------|--------------------------------|
|-------------------------7-9---|-------------------------9-10---|
|-4---4-4-4---4-4-7---76-5-7---|-6---6-6-6---6-6-9-8---9-7-9----|
|-2---2-2-2---2-2-5---54-------|-4---4-4-4---4-4-7-6---7--------|
A2
|-------------------------------|--------------------------------|
|-------------------------7-9---|-------------------------9-10---|
|-4---4-4-4---4-4-7---76-5-7---|-6---6-6-6---6-6-9---98-7-9----|
|-2---2-2-2---2-2-5---54-------|-4---4-4-4---4-4-7---76--------|
Repeat A1
B Play 4 times
|----------------------------------------|
|----------------------------------------|
|----------------------------------------|
|-22336655445588776677101099889912121111-|
pm....................................
Repeat A2, A1, A2, A1, B x 4
C [1,3] [2] [4]
|-------------------------|-------------------------|-------------------------|
|-------------------------|-------------------------|-------------------------|
|-------2-----------2-----|-------1-----------1-----|-------4-----------4-----|
|-2-3-5---5-3-2-3-5---5-3-|-1-2-4---4-2-1-2-4---4-2-|-4-5-7---7-5-4-5-7---7-5-|
. . . . . . . . . . . . . . . . . . . . . . . . . . . . . . . . . . . .
Repeat C x 3 (last time play C' instead)
C' [4]
|-------------------------|
|-------------------------|
|-------4-----------3-----|
|-4-5-7---7-5-4-5-7-------|
. . . . . . . . .
D1 (slower) Play twice
|-----------------------------------------------------------------|
|-----------------------------------------------------------------|
|-----------------------------------------------------------------|
|-2--------------5-0---------------1------------6-4---------------|
Repeat D1 x 3 (under solos)
D2 (under solos)
|-----------------------------------------------------------------|
|-----------------------------------------------------------------|
|-----------------------------------------------------------------|
|-2--------------5-0---------------1------------6-4-------3-------|
Solos:
|-------------19/21-19-17----------------------19-21~----------|
|-------------------------19----22-18-19-21-22--------22-18~~--|
|----------18----------------18--------------------------------|
|-16-18-20-----------------------------------------------------|
|--------------------------------------------------------------|
|--------------------------------------------------------------|
) ) ) ) )
|------------/----------/|/|/|/|-|-----21-18-------------17-14-------
|----------15---------14---------|-----------19----------------15----
|---------------18-17------------|-/17----------18----------------14-
|-15-17-18-----------------------|-----------------20-16-------------
|--------------------------------|-----------------------------------
|--------------------------------|-----------------------------------
--------14----------------------|----------------------------------
-----------14-------------------|----------------------------------
--------------14----------------|----------------------------------
--16-12----------13-------------|----------------------------13----
--------------------14-11-------|----------13----13-15-13-15----15-
--------------------------12~~~-|-15-13-15----15-------------------
-------------------------------------------p--p--h-----|
--------------------------------13----15-17-14-13-14~~-|
--------------13----13-15-13-15----15------------------|
--13-15-13-15----15------------------------------------|
-------------------------------------------------------|
-------------------------------------------------------|
>
|--------------------------------------|---------------------------
|--------------------------------------|---------------------------
|-/18~~--------------------------------|----------------h----------
|------16~~----------------------------|--12-13-15-13-12-13--------
|-----------17-19-21-19-17-19-17-16~~--|--------------------17-15--
|--------------------------------------|---------------------------
>>>>>>>>>>>>>>>>>>>>>>>>>>>>>>
-----------------------------------|---------------------------------
-----------------------------------|---------------------------------
-----------------------------------|-----------------------------14--
--------------------)))~a.h.~)))---|--------------------15-16-18-----
--13---h--p--p-----/---------------|-----------14-16-17--------------
-----16-17-16-14-15----------------|--13-15-17-----------------------
)~~~~~~
---------------h--p------------14------h--p----------/-|
--------15~~-14-15-14~~-/14-15----15-14-15-14~~-13-13--|
--16-18------------------------------------------------|
-------------------------------------------------------|
-------------------------------------------------------|
-------------------------------------------------------|
Repeat A2, A1, A2, A1, B x 3
Outro
|----------------------------------------|
|----------------------------------------|
|-------------------------11-10-11-14-13-|
|-2233665544558877667710109--8--9--12-11-|
pm......................




Ваше мнение



Капча