CARCASS-TOMORROW BELONGS TO NOBODY
From the album SWANSONG
TRANSCRIBED BY : SCOTT KING
NOVEMBER 18, 1996

Scott at email: [email protected]
Tuning: B, Drop down 2.5 steps
/ - Slide up to
. - Palm mute
~ - Vibrato
ah - Artificial Harmonics
h - Hammer on
rhy fig 1
|----------------------------------|
|----------------------------------|
|----------------------------------|
|-2-----2-----2-----2-----2--------|
|-0-----0-----0-----0-----0--------|
|---0-0---0-0---0-0---0-0---3-2-0--|
... ... ... ... ....
rhy fig 1 A rhy fig 2
|-------------------------------|----------------------|
|-------------------------------|----------------------|
|-------------------------------|----------------------|
|-2-----2-----2-----2------5--4-|2---------------------|
|-0-----0-----0-----0------3--2-|0--00-0-0--0000-3320--|
|---0-0---0-0---0-0---0-0-------|----------------------|
... ... ... ... ................
end rhy fig 2
|---------------------------------------------------------------|
|---------------------------------------------------------------|
|---------------------------------------------------------------|
|-2---------------7---2-----------------------2------------ah---|
|-0--00-0-0--3220-5---0--00-0-0--0000-3320----0--00-0-0-5h7-3~--|
|---------------------------------------------------------------|
........... ................ ......

rhy fig3
|------------------------|
|------------------------|
|------------------------|
|-----5-------7-------9--|
|-3---3---5---5---7---7--|
|-1-------3-------5------|
rhy fig2 a
|--------------------------------------------|
|--------------------------------------------|
|--------------------------------------------|
|-2----------------------2----------------7--|
|-0--00-0-0--0000-3320---0--00-0-0--3220--5--|
|--------------------------------------------|
................ ...........

rhy fig 4 rhy fig 5
|---------------------------|--------------------|
|---------------------------|--------------------|
|---------------------------|--------------------|
|------10~---------5--------|-5---------------5--|
|-7--7/10--------5--5--3--1-|-3-5--3---3---3--3--|
|-5--5/8----0h1/3-----1--1--|---3--1-0-1-0-1-----|
. .
-




Ваше мнение



Капча