Intro to Ruptured in Purelence (Spelling??)
[q=quarter note:h=half note:w=whole note:e=eighth note:s=sixteenth
Note:R=rest:^=accent]
Q q e e q q q q q q q q q q q q q
|-----------|---------|---------|---------|
|-----------|---------|---------|---------|
|-3---------|---------|-3---3---|---3-----|
|-3-2-------|---------|-3-2-3-2-|-4-3-4-2-|
|-1-2-2-2-2-|-2-2-2-2-|-1-2-1-2-|-4-1-4-2-|
|---0-0-0-0-|-0-0-0-0-|---0---0-|-2---2-0-|
P.m.-------------| |-| |-| |-| |---|
Play that four times
Then:
Q q h w q q q q q q q q q q h w
|-----R-|-R-|---------|---------|-----R-|-R-|
|-----R-|-R-|---------|---------|-----R-|-R-|
|-3---R-|-R-|---3-----|---3-----|-3---R-|-R-|
|-3-2-R-|-R-|-4-3-4-2-|-4-3-2-2-|-3-2-R-|-R-|
|-1-2-R-|-R-|-4-1-4-2-|-4-1-2-2-|-1-2-R-|-R-|
|---0-R-|-R-|-2---2-0-|-2---0-0-|---0-R-|-R-|
P.m.-------| |-------| |---| |-|
Q q q q q q q q q q h w q q q q q q q q
|---------|---------|-----R-|-R-|---------|---------|
|---------|---------|-----R-|-R-|---------|---------|
|---3-----|---3-----|-3---R-|-R-|---3-----|---3-----|
|-4-3-4-2-|-4-3-2-2-|-3-2-R-|-R-|-4-3-4-2-|-4-3-2-2-|
|-4-1-4-2-|-4-1-2-2-|-1-2-R-|-R-|-4-1-4-2-|-4-1-2-2-|
|-2---2-0-|-2---0-0-|---0-R-|-R-|-2---2-0-|-2---0-0-|
|-| |-------| |---| |-----------| |-------| |---|
Q q h w q q q q h h
|-----R-|-R-|---------|-----|
|-----R-|-R-|---------|-----|
|-3---R-|-R-|-4-4-4-4-|-4-5-|
|-3-2-R-|-R-|-4-4-4-4-|-4-5-|
|-1-2-R-|-R-|-2-2-2-2-|-2-3-|
|---0-R-|-R-|---------|-----|
|-----------------| ^ ^
Then go back to the beginning....then play what I just typed out
Again...then this
Q q s s s s s s s s q q q q q q s s s s s s s s
|---------------------|---------|---------------------|
|---------------------|---------|---------------------|
|-3-------------------|-3---3---|---3-----------------|
|-3-2-----------------|-3-2-3-2-|-4-3-----------------|
|-1-2-----------------|-1-2-1-2-|-4-1-----------------|
|---0-0-0-0-0-0-0-0-0-|---0---0-|-2---0-0-0-0-0-0-0-0-|
^p.m.--------------| ^|-|^|-----|^|---------------|
Play that four times....and that's the intro




Ваше мнение



Капча