join the death/black tab mailing list my emailing
R**k The Vote
(Tune down 2.5 steps to B)
Thanks to Jesse for sending these.
-----------------------------------------------------------------------------|
-----------------------------------------------------------------------------|
---------------------------------7-------------------------------2--4--5--4--|
-7--9--7--10--7--9--7--7--9--10-----10--9--7--7--9--7--10--7--9--3--5--7--5--|
-----------------------------------------------------------------------------|
-----------------------------------------------------------------------------|
PM.............| PM.......| PM....| PM................|
-----------------------------------------------------------------------------|
-------------------------------------------6---------------------------------|
--5--7--5--5--7--5--9---5--7--5--5--7--9---7--9---7--5--5--7--5--9---7--2--4-|
--7--9--7--7--9--7--10--7--9--7--7--9--10-----10--9--7--7--9--7--10--9--3--5-|
-----------------------------------------------------------------------------|
-----------------------------------------------------------------------------|
PM.................| PM........| PM....| PM............|
-----------------------------------------------------------------------------|
-----------------------------------------------------------------------------|
--5--3--5--7-----------------------------------------------------------------|
--7--5--7--9----2--------------------2--------------------2------------------|
----------------0--0--2--0--3--0--2--0--0--2--3--5--3--2--0--0--2--0--3--0--2|
-----------------------------------------------------------------------------|
PM................| PM..............| PM...............|
-----------------------------------------------------------------------------|
-----------------------------------------------------------------------------|
-----------------------------------------------------------------------------|
--------------------2--------------------2--------------------2--------------|
--------------------0--0--2--0--3--0--2--0--0--2--3--5--3--2--0--0--2--0--3--|
--1--3--5--3--5--7-----------------------------------------------------------|
PM...............| PM...............| PM...........|
-----------------------------------------------------------------------------|
------------------------------------------------------------------------6----|
-------------------------------------5--5--7--5--9---5--7--5--5--7--9---7---9|
-----------------------------3----5--7--7--9--7--10--7--9--7--7--9--10-----10|
--0--2-----------------------3----5------------------------------------------|
---------1--3--5--3--5--7----1----3------------------------------------------|
PM....| PM................| PM......| PM
------------------------------------------------------------------------------|
--------------------------------------------8--6--------------8--6------------|
-7--5--5--7--5---9--5--7--------------------9--7---9--7-------9--7--9---10----|
-9--7--7--9--7--10--7--9----3----5----3-----------10--9---3---------10--12----|
----------------------------3----5----3-------------------3-------------------|
----------------------------1----3----1-------------------1-------------------|
---------------------------------------|
---------------------------------------|
---------------------------------------| Play 4x
--2-2----2-2----2-2----2-2-------------|
--0-0----0-0----0-0----0-0-------3--2--| (this last is a pull-off, I think)
----------------------------5-3--------|
PM..........|
These are all the basic riffs used throughout the song.




Ваше мнение



Капча