join the death/black metal tab mailing list by emailing


Reek of Putrefaction tabs

Reek of Putrefaction intro
(Tune down 2.5 steps to B)

Thanks to Royce for sending a corrected version of this.
------------------------
------------------------
------------------------
-----2-----------2------ (play twice)
-4---0-4-2---4---0-4-2--
-2-----2-0---2-----2-0--

---------------------------------------------------------------
---------------------------------------------------------------
---------------------------------------------------------------
------------------------6--5------------------------7----4-3---
-3--2--5--4------/7--6--4--3-----3h4p3----4----4-4--5--5-2-1---
-1--0--3--2------/5--4----------------5-4-2----2-2-----3-------




Ваше мнение



Капча