join the death/black metal tab mailing list by emailing


Pungent Excruciation tabs

Pungent Excruciation
(Tune down 2.5 steps to B)

I had a tough time picking up on the exact rhythms used in the song, so just
strum the chords in time with the music and it sounds close enough to my
ears... be sure to let the chords ring for the authentic Reek-effect!
1st, 2nd verses:
|-----------------|-----------------|-----------------|-----------------|
|-----------------|-----------------|-----------------|-----------------|
|-----------------|-----------------|-----------------|-----------------|
|-----------------|-----------------|-----------------|-----------------|
|-2-2---2-2-2---2-|-2-2---2-5-5---5-|-8-8---8-8-8---8-|-7-7---7-7/8-75-|
|-0-0---0-0-0---0-|-0-0---0-3-3---3-|-6-6---6-6-6---6-|-5-5---5-5/6-53-|
e q e e q e sim. e q e e e e e

|-----------------|-----------------|-----------------|-----------------|
|-----------------|-----------------|-----------------|-----------------|
|-----------------|-----------------|-----------------|-----------------|
|-----------------|-----------------|-----------------|-------------7/8-|
|-2-2---2-2-2---2-|-2-2---2-5-5---5-|-8-8---8-8-8---8-|-7-7---7-7/8-5/6-|
|-0-0---0-0-0---0-|-0-0---0-3-3---3-|-6-6---6-6-6---6-|-5-5---5-5/6-----|
e q e e q e sim. e q e e e e e

Bridge:
|---------------|---------------------|----------------|-----------------|
|---------------|---------------------|----------------|-----------------|
|---------------|---------------------|----------------|-----------------|
|-------3-------|-3----3----3----3----|-------3--------|-3/6-5---3/6-5---|
|-2-----1-------|-1----1----1----1----|-2-----1--------|-1/4-3---1/4-3---|
|-0-000-----000-|---00---00---00---00-|-0-000-----0000-|-----------------|
e sse q. sse e ss e ss e ss e ss e sse q. ssss s s q. s s q.

Under vocals: (let chords ring)
|-----------------|-----------------|-----------------|-------------------|
|-----------------|-----------------|-----------------|-------------------|
|-4-4---4-4-4---4-|-4-4---4-4---4/8-|-7-7---7-7-7---7-|-7-7---7-8-8-10-10-|
|-4-4---4-4-4---4-|-4-4---4-4---4/8-|-7-7---7-7-7---7-|-7-7---7-8-8-10-10-|
|-2-2---2-2-2---2-|-2-2---2-2---2/6-|-5-5---5-5-5---5-|-5-5---5-6-6-8--8--|
|-----------------|-----------------|-----------------|-------------------|
e q e e q e e q e q e e e q e e q e e q e e e e e




Ваше мнение



Капча