TAB: Some more Carcass stuff


Pedigree Butchery
-------------------------------------------------------
---------------------------------------------4---4-----
-----------------3-4-------------------3-4-----0-------
-2-3-5-2-----2-3-3-4-2---2-3-5-2---2-3-3-4-3-----------
-2-3-5-2-----2-3-1-2-2---2-3-5-2---2-3-1-2-------------
-0-1-3-0-----0-1-----0---0-1-3-0---0-1-----------------
let
Ring---|


-------------------------------------------------------
-------------------------------------------------------
-----------------3-4-------------------3-4-------------
-2-3-5-2-----2-3-3-4-2---2-3-5-2---2-3-3-4-2-----------
-2-3-5-2-----2-3-1-2-2---2-3-5-2---2-3-1-2-2-----------
-0-1-3-0-----0-1-----0---0-1-3-0---0-1-----0-1~~~------
A.H.

That's the intro to it..




Ваше мнение



Капча