-/
/ The following is the author's own interpretation of the song, to be used /
/ for private use and studying /
/-------------------------------------------------------------------------/
CARCASS KEEP ON ROTTING IN THE FREE WORLD
From the Album SWANSONG
Copyright 1996 EARACHE RECORDS

Version 2.1 - November 1997
Transcribed by: Scott King
For Questions, Comments, Newest Version, or Corrections contact
Scott: [email protected]
Check out 's Death/Black Tab Webpage at

join the death/black tab emailing list by filling out the free
subscription form at /join.htm
. - palm mute / - slide up to
- slide down to ~ - vibrato
h - hammer on b - bend
p - pull off Suffixes for bend
ph - pinch harmonic f - full bend h - half bend
* - see comment r - release t - tap bend
X - percussion mute ~ - vibrato bend
@ - slight palm mute () - ghost note, sustained note
Tune Down 2.5 steps to B
INTRO
|--------------------------------------|
|--------------------------------------|
|--------------------------------------|
|----------------------7--------9-----|
|-2---5---7----5---7---5--------7-----|
|-0---3---5----3---5------0000---------|
....
RIFF 1 Play 1 Time
|-------------------------------------------------------------------|
|-------------------------------------------------------------------|GTRS
|-------------------------------------------------------------------|1&2
|-------------------------------------------------------------------|
|------5--------3--------------2---------5----------3-3-----------2-|
|-3333-3--5-3-5----5-3---0000-0----3333-3--5-3-5-3-----5---0000-0-|
.... . . . .... .... . . . . ....
|-------------------------------------------------------------------|
|-------------------------------------------------------------------|GTRS
|-------------------------------------------------------------------|1&2
|-------------------------------------------------------------------|
|------5--------3--------------2---------5----------3-3-------------|
|-3333-3--5-3-5----5-3---0000-0----3333-3--5-3-5-3-----5----------|
.... . . . .... .... . . . . END RIFF 1
RIFF 2 Play 1 Time
|----------------------------------------------------------------|
|----------------------------------------------------------------|GTR
|----------------------------------------------------------------| 1
|------------------------------------------------------5---------|
|-2-------(2)--------------2-2--2-5-----(5)-------7-5-7---7-5----|
|-0-------(0)--------------0-0--0-3-----(3)-------------------7--|
| . |
| |
|----------------------------------------------------------------|
|----------------------------------------------------------------|GTR
|-------------------------------------------------------4--------| 2
|-------5---------------5---------------5--------5-4-5----5-4----|
|-7-5-7----7-5----7-5-7----7-5----7-5-7----7-5----------------5--|
|--------------7---------------7---------------7-----------------|

|----------------------------------------------------------------|
|----------------------------------------------------------------|GTR
|----------------------------------------------------------------| 1
|------------------------------------------------------5--7------|
|-2-------(2)---------------2-2--2-5----(5)---------7--3--5------|
|-0-------(0)---------------0-0--0-3----(3)---------5------------|
| . |
| |
|----------------------------------------------------------------|
|----------------------------------------------------------------|GTR
|----------------------------------------------------------------| 2
|-------5---------------5---------------5--------------5--7------|
|-7-5-7----7-5----7-5-7----7-5----7-5-7----7-5------7--3--5------|
|--------------7---------------7---------------7----5------------|
End Riff 2
Riff 3 Play 1 Time
|--------------------------------------------------------------|
|--------7-------------7---------------7-------------7---------|GTR
|------7---7-6~----------7-6~--------7---7-6~----------7-6~----| 1
|--------------------------------------------------------------|
|-2---------------2--------------2---------------2-------------|
|-0---------------0--------------0---------------0-------------|
| |
|--------------------------------------------------------------|
|--------------------------------------------------------------|GTR
|--------7-------------7---------------7----------7~-----------| 2
|------9---9-7~----------9-7~--------9---9-7~--------9-7~------|
|-2---------------2--------------2-------------2---------------|
|-0---------------0--------------0-------------0---------------|
|----------------------------------------------------------------|
|--------7-------------7------------------7---7-8-7~--7b9--7-----|GTR
|------7---7-6~----------7-6~-------7---7---7----------------9~--| 1
|----------------------------------------------------------------|
|-5---------------5--------------7-------------------------------|
|-3---------------3--------------5-------------------------------|
| . . |
|----------------------------------------------------------------|
|----------------------------------------------------------------|GTR
|--------7-------------7------------------7---7-9-7~-------------| 2
|------9---9-7~----------9-7~-------9---9---9---------7b9--7-5~--|
|-5---------------5--------------7-------------------------------|
|-3---------------3--------------5-------------------------------|
. . End Riff 3

Play Riff 1 1 Time w/Fill 1
Fill 1
|---------------------------------------------|
|---*----------/15b17(15)b17(15)b17(15)b17---|
|---12b14~------------------------------------|
|---------------------------------------------|
|---------------------------------------------|
|---------------------------------------------|
*not sure about this note,


Play Riff 2 1 Time
Play Riff 3 2 Time
Riff 4 Play 3 Times
|----------------------------------------------------------------|
|----------------------------------------------------------------|GTR
|----------------------------------------------------------------| 1
|------------------------------------------------------5---------|
|-2-------(2)--------------------5-----(5)-------7-5-7---7-5-----|
|-0-------(0)--------------------3-----(3)-------------------7---|
| |
| |
|----------------------------------------------------------------|
|----------------------------------------------------------------|GTR
|-------------------------------------------------------4--------| 2
|-------5---------------5---------------5--------5-4-5----5-4----|
|-7-5-7----7-5----7-5-7----7-5----7-5-7----7-5----------------5--|
|--------------7---------------7---------------7-----------------|

Riff 5 Play 1 Time
|----------------------------------------------------------------|
|----------------------------------------------------------------|GTR
|----------------------------------------------------------------| 1
|-----------------------------------------------------5--7-------|
|-2-------(2)---------------------5----(5)---------7--3--5-------|
|-0-------(0)---------------------3----(3)---------5-------------|
| |
| |
|----------------------------------------------------------------|
|----------------------------------------------------------------|GTR
|----------------------------------------------------------------| 2
|-------5---------------5---------------5-------------5---7------|
|-7-5-7----7-5----7-5-7----7-5----7-5-7----7-5-----7--3---5------|
|--------------7---------------7---------------7---5-------------|
End Riff 2
Riff 2 under solo Play 2 Times
|----------------------------------------------------------------------|
|----------------------------------------------------------------------|GTR
|----------------------------------------------------------------------| 2
|----------------------------------------------------------------------|
|------2---------5--------3--------------2---------5------------3-3----|
|-0000-0----3333-3--5-3-5---5-3----0000-0----3333-3----5-3-5-3-----5-|
.... .... . . . .... .... . . . .
Riff 2.a under solo Play 1 Time
|----------------------------------------------------------------|
|----------------------------------------------------------------|
|----------------------------------------------------------------|GTR
|------------------------------------------------------5---------| 1
|-2-------(2)--------------2-2--2-5-----(5)-------7-5-7---7-5----|
|-0-------(0)--------------0-0--0-3-----(3)-------------------7--|
.

|----------------------------------------------------------------|
|----------------------------------------------------------------|
|----------------------------------------------------------------|
|-----------------------------------------------------5--7-------|
|-2-------(2)---------------2-2--2-5----(5)--------7--3--5-------|
|-0-------(0)---------------0-0--0-3----(3)--------5-------------|
. End Riff 2.a

Play Riff 3 4 Times (End w/Fill 2)

Fill 2
|---------|
|---------|
|---------|
|-9999-9-|
|-7777-7-|
|---------|




Ваше мнение



Капча