CARCASS-EMOTIONAL FLATLINE
From the album WAKE UP AND SMELL THE CARCASS
TRANSCRIBED BY : SCOTT KING
FEBRUARY 7, 1997


Tuning: B, Drop down 2.5 steps
/ - Slide up to
- Slide down
. - Palm mute
~ - Vibrato
ah - Artificial Harmonics
h - Hammer on
b - bend
r - release
intro
|---------------------------------|
|---------------------------------|
|---------------------------------|
|-----7---5---4-------------------|
|-----5---3---2---5---4-----------|
|-----------------3---2-----------|
rhy fig 1
|-------------------------------------------------------------------------|
|-------------------------------------------------------------------------|
|-------------------------------------------------------------------------|
|----------5-----5-4---------7-----7-----------5-----5-4--------7------7--|
|--0---000---000-----0--000----000---0------------------------------------|
|---------------------------------------3--333----33------3--333---333---3|
... ... ... ... ... .. ... ...
rhy fig 2
|---------------------------------------------------------------------------|
|---------------------------------------------------------------------------|
|---------------------------------------------------------------------------|
|--------------5--7----------------------------------7----------------------|
|--7--5--------3--5--7-------------------7--5--------5--5--7----------------|
|--5--3--00000-------5---/15----/15----5--3--00000----3--5--x---12------|
..... ..... (x)pick slide

end rhy fig 2
|------------------------------------------------------------------|
|------------------------------------------------------------------|
|------------------------------------------------------------------|
|---------------5--7----------------------------------7--5--4------|
|--7--5---------3--5--7----------------7--5-----------5--3--2--5--4|
|--5--3--00000--------5---/15--/15---5--3--00000-------------3--2|
rhy fig 3
|------------------------------------------------------------------------------|
|------------------------------------------------------------------------------|
|--------------------------------------------------4------2------0-------------|
|-------7-------5--------4--4--4b5r4---2----------------0------0-------4--2----|
|--0--7----0--7-----0--7------------------5---0--3----3------3------33------32|
|------------------------------------------------------------------------------|
. . . . . . . . . . . . ..
end rhy fig 3
|-----------------------------------------------------------------------------|
|-----------------------------------------------------------------------------|
|-----------------------------------------------------------------------------|
|-------7-------5--------4--4--4b5r4---2------4-5~--5-7~--7-9-7-9--9b11~r9--5~|
|--0--7----0--7-----0--7------------------5-----------------------------------|
|-----------------------------------------------------------------------------|
. . . . . .
rhy fig 4
|----------------------------------------------------------|
|----------------------------------------------------------|
|----------------------------------------------------------|
|-------------------8--------------------------------------|
|---7---2---5---2---6---7-7----2---4--44444--------2-3-2---|
|---5---0---3---0-------5-5----0---2--22222-2232-3------3-2|
. . . ..... ..

email any questions,comments or corrections.
Scott at email: [email protected]




Ваше мнение



Капча