join the death/black metal tab mailing list by emailing


Exhume to Consume tabs

Exhume to Consume
(Tune down 2.5 steps to B)

This due to the efforts of John (a Liverpool-based guitarist!)
Verse: (Bill actually plays this at the second fret live)
|---------------------------|---------------------------|
|---------------------------|---------------------------|
|---------------------------|---------------------------|
|--9--9--8h9p8---7----8--10-|--9--9--8h9p8---7----10-8--|
|--9-----------9---8--8--10-|--9-----------9---8--10-8--|
|--7------------------6--8--|--7------------------8--6--|
e e e e e e e e sim.

|---------------------------|---------------------------|
|---------------------------|---------------------------|
|---------------------------|---------------------------|
|--9--9--8h9p8---7----8--10-|--9--9--8h9p8---7----10-9--|
|--9-----------9---8--8--10-|--9-----------9---8--10-9--|
|--7------------------6--8--|--7------------------8--7--|

|---------------------------|--------------------|
|---------------------------|--------------------|
|---------------------------|--------------------|
|--4--4--3h4p3---2----3--5--|----4-----6-5--7-6--|
|--4-----------4---3--3--5--|---4--3---6-5--7-6--|
|--2------------------1--3--|--2-------4-3--5-4--|

|---------------------------|-------------------| The descending chord bit
|---------------------------|-------------------| may be wrong?
|---------------------------|-------------------|
|--4--4--3h4p3---2----3--5--|----4-----7-6-5--2-|
|--4-----------4---3--3--5--|---4--3---7-6-5--2-|
|--2------------------1--3--|--2-------5-4-3--0-|

|------------------------------| Play this bit 4x; the repeated notes are
|------------------------------| fast alternate picking in time with the
|------------------------------| music (I don't know how many exactly are
|------------------------------| played).
|----------5--------------7/9--|
|-22222222---2--33333333-------|

The cool bit people recognise immediately (just pick in time w/music):
|-------------------|-------------------|-------------------|------------|
|-------------------|-------------------|-------------------|------------|
|-------------------|-------------------|-------------------|------------|
|-4-----------------|-3-----------------|-2-----------------|-7--9--6-5--|
|-4--------5--5--5--|-3--------4--4--4--|-2-------3333------|-7--7--6-5--|
|-2--222222-22-22-2-|-1--111111-11-11-1-|-0-000000-----0000-|-5-----4-3--|




Ваше мнение



Капча