CARCASS - DON'T BELIEVE A WORD
From the Album SWANSONG
Copyright 1995 Earache Records
Version 1.0 - January 2002

Transcribed by: Mikko Leimu

For Questions, Comments, Newest Version, or Corrections contact
Mikko: at [email protected]

Check Out Death Warp, With More Transcriptions On It:
http://www.sorrowsend.com/deathwarp

.. - palm mute
- slide down to
/ - slide up to
* - see comment

B Tuning (B,E,A,D,F#,b)

Carcass - Don't Believe a Word

Riff A
|--------------------------------|
|--------------------------------|
|-----------13-------------------|GTR 1
|-2--------------7------9---10---|
|-2---------11-------------------|
|-0--------------5------7---8----|
| |
|--------------------------------|
|--------------------------------|
|------------4-------------------|GTR 2
|-2--------------3------5---3----|
|-2----------2-------------------|
|-0--------------1------3---1----|

Repeat Riff A

Riff B
|-------------------------------------------------|
|-------------------------------------------------|
|-------------------------------------------------|
|-------------------------------------------4-----|
|-3-----2-2-2-3-----2-2-2-3-----2-2-2-----3---3---|
|-1-000-0-0-0-1-000-0-0-0-1-000-0-0-0-0-4-------4-|
... . . . ... . . . ... . . .

|----------------------------------------------|
|----------------------------------------------|
|----------------------------------------------|
|------------------------------------------6---|
|-3-----2-2-2-3-----2-2-2-3-----2-2-2-3----4---|
|-1-000-0-0-0-1-000-0-0-0-1-000-0-0-0-1-00-----|
... . . . ... . . . ... . . . ..

Repeat Riff B

Riff C
|-------------------------------------------------|
|-------------------------------------------------|
|-------------------------------------------------|
|-------------------------------------4-444-4-444-|
|-4-444-4-444-4-444-4-444-3-333-3-333-6-666-6-666-|
|-2-222-2-222-2-222-2-222-5-555-5-555-------------|
... . ... . ... . ... . ... . ... . ... . ...

Riff B (2 times)
Riff C

Riff D
|-------------------------|
|-------------------------|
|-------------76-6-6/7-7-|GTR 1
|-------------------------|
|-2-222-2-2-2-54-4-4/5-5-|
|-0-000-0-0-0-*-----------|
| ... . . .
|
|------------------------------|
|------------------------------|
|------------1110-10-10/11-11-|GTR 2
|------------------------------|
|-2-222-2-2-2-9-8--8--8/-9--9-|
|-0-000-0-0-0-*----------------|
... . . .

* The slide thing is played simultaneously though it's not tabbed so.

Repeat Riff D (7 times)

Riff A (2 times)
Solo w/Riff B (2 times)
Riff C

Riff B (2 times)
Riff C
Riff D (8 times)
Riff A (4 times)

Check Out Death Warp, With More Transcriptions On It:
http://www.sorrowsend.com/deathwarp




Ваше мнение



Капча