From [email protected] Wed Apr 2 08:51:23 1997
Date: Thu, 20 Mar 97 21:17:22 EST
From: "WILLIAMS, FLETCHER"
To: [email protected]
Subject: Carneous Cacophony by Carcass
Ive attatched my transcription to this message because email screws it up
When i put it directly in here.
CARCASS
^УCarneous Cacophony^Ф
Nectrotisism ~ Descanting the Insalubrious
Tabbed by Fletcher Williams
Here are all the riffs. its up to you to figure out the rest but
I hope this helps.
This is a killer tune so have fun dammit!!!!!
Riff 1: h hp *repeat
-------------------------------------
-
-
-
7-------7-------7----5--------8-787\5
5---5-5-5---5-5-5/56---6--5---------- *
Hp hp
----------------------------------------------------------------
-
-
-
6-------6-9------3---3-2-3-6-----------5-8-787575--7-----7---4-3
4---4-4-4-7------1---1-0-1-4-----5-6-8-----------6-5-----5---2-1
Riff 2:
---------------------------------------------------------------
-
-
-
7---------6---3-2-------2-3---2-3-------3-2---3-2-------2-3---6
5---5-5-5-4---1-4---4-4-4-1---0-1---1-1-1-0---1-4---4-4-4-1---4
---------------------------------------------------------------
-
-
--------------6-----------6---7-6-------6-7---6-----------6----
7-------7-8---4-8-------8-4---5-4---4-4-4-5---4-8-------8-4---8
5---5-5-5-6-----6---6-6-6-----------------------6---6-6-6-----6
When the beat changes these become power chords
Riff 3:
-----------------------------------------------
-
-
-
----------5--7--8-----------------5-----------2
5--7--8------------8--7--3--5--6-----1--3--4---
This part is hard to hear so it might be a little off but it
Works.
Bridge:
-----------------------------------------------------
-
-
-----------------------------------------------------
8\5---------------------8\7-7\6----------------------
6\5-5(pick fast)--------6\5-5\4-4(same)--------------
-------------------------------------------------------
-
-
---------------------------------7\6-------------------
7\6-8\7----------------------8\7-5\4-4(same)-----------
5\4-6\5-5(same)--------------6\5-----------------------
The first and second times this is played it is just
Single notes played fast
Riff 4:
------------------------------------------------------------
-
-------------------------------------------6-----------------
-------------------10-------9-----8------8-4-----------------
7----------------5-8--------7-----6------6---------6-----6-7-
5------------7-8---------------8-------7-----------4---0-4-5-
Let chords ring on variant and don^Тt play the open E^Тs.
Riff 5:
-----------------------------------
-
-
2------3----------2-----3----------
0------1---4-3----0-----1---5-6----
-----0-----2-1--------0-----3-4----
Riff 6:
H h
----------------------------------
-
------2--24---2-1-----------------
----2----------------2------------
0---------------------------------
------------------------4-45--4---
*end 1 *end 2
H
------------------------------ -----------------------------
- ----------------1------------
------5-57--5-4--------------- -------3--2--3---------------
----5---------------5--------- ----3------------------------
3----------------------2--3-4- * 1------------------3--2-3-4--
The finale:
-
-
--------------------------------------------------22222222-------
-----------6---------------4------------------3------------------
-----------4---------------2------------------1--------------6---
55555555-------333333333-------22222222----------------------4---
Play twice
--------5--7-5~ -------5--7-5~ -------5--7-5~ ---------5--7-4~
-
--------2--4-2~ -------2--4-2~ -------2--4-2~ ---------2--4-1~
----------------------------------------------------------------
5--------------4--------------3--------------4------------------
3-333----------2-222----------1-111----------2-222--------------
Whew!! I think it took me longer to tab this than it did to
Learn it.... well all you Carcass fans, if you need more stuff
Likethis you should pay a visit to and you can mail me for an uncertain period of time at
if you have any special requests etc.
I also know a lot of cannibal corpse from the bleeding and tomb
Of the mutilated if there be need of such tablature. later,
Death heads.




Ваше мнение



Капча