From:
Carcass
Well, this is my first true attempt at transcribing any song, as
I've only been playing the guitar for about seven months. I feel
Fairly confident as to it's accuracy, but if you do find any
Problems, go ahead and let me know through E-mail. If you're looking
For a solo, you're not gettin it from this guy; however, if anyone
Does know it, please E-mail it to me and I'll see if I can put it up.
I realize that the Guitar magazines have to tab what's popular, so
It's up to we Death fans to help each other out.
The main riff in this song is one of my personal faves and
Requires a machine gun right hand to pull off correctly. It itself
Wasn't impossible to figure out, but the verse riff gave me a hard
Time for some reason. So be my guest and enjoy the fruit of my
Labor.
P.m.------| ~~ a.h.~
E----------------
B----------------
G----------------
D-----4----------
A--2--2--3--4--2-
E--0-----1--2--0-
~~ a.h.~
E----------------------------------------------|
B-------------p-----------------------p--------|
G--------4--5---4----------------4--5---4------| Play 2X
D--4--7------------4-------4--7------------4---|
A----------------------------------------------|
E----------------------------------------------|
) ) ) ) ) )
P.m.------| / /~~ / / ~~ / / ~~
E----------------------------------------------|
B----------------------------------------------|
G------------------------------1---1-----------| Play 4X
D-----4---------------2---2--------------2---2-|
A--2--2--3--4--2-------------------------------|
E--0-----1--2--0-------------------------------|

P.m.------| p.m.--| p.m.--| p.m.
E--------------------------------------------------------
B--------------------------------------------------------
G--------------------------------------------------------
D-----4-------------------5----------5----------4--------
A--2--2--3--4--2----------3----------3-------5--2--3-----
E--0-----1--2--0--000000-----000000-----000--3-----1-----

P.m.--| p.m.--| p.m.
E---------------------------------------------------|
B---------------------------------------------------|
G---------------------------------------------------| Play 2X
D------------5----------5--------------4------------|
A--2---------3----------3-------5-\-4--2--3--4--2---|
E--0-000000-----000000-----000--3-\-2-----1--2--0---|

When aspirations are lost.............
E----------------------------------------------------------------
B----------------------------------------------------------------
G----------------------------------------------------------------
D---------4--------------------4--------------------4------------
A--5-\-4--2--3--4--3----5-\-4--2--3--4--5----5-\-4--2--3--4--3---
E--3-\-2-----1--2--1----3-\-2-----1--2--3----3-\-2-----1--2--1---

E----------------------------------------------------------------
B----------------------------------------------------------------
G----------------------------------------------------------------
D---------4--------------------4--------------------4------------
A--5-\-4--2--3--4--2----5-\-4--2--3--4--3----5-\-4--2--3--4--5---
E--3-\-2-----1--2--0----3-\-2-----1--2--1----3-\-2-----1--2--3---

E---------------------------------------|
B---------------------------------------|
G---------------------------------------|
D---------4---------------3--------2----|
A--5-\-4--2--3--4------3--------2-------|
E--3-\-2-----1--2---1--------0----------|

P.m.--------|~ p.m.--------|~ p.m.--------|~
E------------------------------------------------------|
B------------------------------------------------------|
G------------------------------------------------------|
D------------------------------------------------------|
A------------------------------------------------------|
E--0-0000-00000-7---0-0000-00000-5---0-0000-00000-3----|
That's it. Give me some feedback if you feel like it.




Ваше мнение



Капча