BURIED DREAMS - Carcass - Heartwork
Version 1.0 - November 2001
Transcribed by Lalith Vipulananthan ([email protected])
Tuning (Low to High) - B E A D F# B
Note: can't hear harmony A', and G riffs are impossible to hear clearly!
Intro
|---------|
|---------|
|-224-5-4-|
|-002-3-2-|
... . .
A Guitar 1
|--------------------------------------------------------------15~~---------|
|-----------------17-14-------------------------------17-14-----------------|
|--------------16-------15-------------------------16-------15--------------|
|-----------14-------------17~~~~---------------14--------------------------|
|-2-----------------------------------------------------------------224-5-4-|
|-0-----------------------------------------------------------------002-3-2-|
| ... . .
|
| Guitar 2
|---------------------------------------------------------------------------|
|---------------------------------------------------------------------------|
|---------------------------------------------------------------------------|
|---------------------------------------------------------------------------|
|-2------------(2)------------(2)------------(2)------------(2)-----224-5-4-|
|-0------------(0)------------(0)------------(0)------------(0)-----002-3-2-|
... . .
Repeat A with A' (not sure of harmony)
A'
|---------------------------------------------------------------------------|
|---------------------------------------------------------------------------|
|---------------------------------------------------------------------------|
|-2-----------------------------------------------------------------224-5-4-|
|-0-----------------------------------------------------------------002-3-2-|
... . .
B1 (all guitars)
|-----------------13---12~~~------16---15~~------13---12~~---------|
|------------------------------------------------------------------|
|-2---------------11---10~~~------14---13~~------11---10~~-225-6-5-|
|-0--------------------------------------------------------003-4-3-|
... . .
B2
|-----------------13---12~~~------16---15-b(16)-r(15)---13---12~~---------|
|-------------------------------------------------------------------------|
|-2---------------11---10~~~------14---13-b(14)-r(13)---11---10~~-225-6-5-|
|-0---------------------------------------------------------------003-4-3-|
... . .
B1' Play twice
|-----------------13---12~~~------16---15~~------13---12~~------------|
|---------------------------------------------------------------------|
|-2---------------11---10~~~------14---13~~------11---10~~-225-6-5----|
|-0--------------------------------------------------------003-4-3-00-|
... . . ..
C
|---------------------------------------------------------------------|
|-------11-------10-----5---8--------------11------10-----65---------|
|-2-----9--------8------3---6---6----2-----9-------8------43-5/7-8---|
|-0---0----0-000---0-00---------4----0-000---0-000---0-00-----3/5-6---|
. . ... . .. ... . ... . ..
Repeat B1`
B2'
|-----------------13---12~~~------16---15-b(16)-r(15)---13---12~~------------|
|----------------------------------------------------------------------------|
|-2---------------11---10~~~------14---13-b(14)-r(13)---11---10~~-225-6-5----|
|-0---------------------------------------------------------------003-4-3-00-|
... . . ..
Repeat C x 2
D [1,3] [2] [4]
|--------------------------------------------------|-----------------|------------------|
|-------65-------------65--------------65-------|-------65-------|------------------|
|-2-----43-5/7-8-5-----43-5/7-10-8-----43-5/7-8-|-7-----43-5/7-8-|-7---7---3--2-3---|
|-0---0-----3/5-6-3---0-----3/5-8--6---0-----3/5-6-|-5---0-----3/5-6-|-5---5---1--------|
. . . . .

Repeat C, D (play D' instead of [4])
D' [4]
|------------------|
|------7-----------|
|-7--7----3--2-3---|
|-5-------1--------|


E1
|-------------------------------------------------------------------|
|-------------Ah--------------Ah--------------Ah---------6-4----7---|
|-------------7~--------------6~--------------5~------/8------5-----|
|-000000000000----000000000000----000000000000----0-----------------|
E2 (slower)
|-------------------------------------------------------------------|
|-------------Ah--------------Ah--------------Ah---------6-4--------|
|-------------7~--------------6~--------------5~------/8------5-----|
|-0-000-000-00----0-000-000-00----0-000-000-00----0-------------5---|
. ... ... .. ... ... .. ... ... ..
Play F under Steer's lead
F [1,3] [2] [4]
|-------------------------------------------------|-----------------|-----------------|
|-------------------------------------------------|-----------------|-----------------|
|-4-----4-----4---2-----2-----2---5-----5-----5---|-4-----4-----4---|-5-4-5-7-9-7-5-5-|
|---222---222---2---444---444---4---222---222---2-|---222---222---2-|-3-2-3-5-7-5-3-2-|
... ... . ... ... . ... ... . ... ... . pmh............
Repeat F
Play G under Amott's lead
G1
|-----3---------------3---------------3---------------3------------|
|-----3---------------3---------------3---------------3------------|
|------------------------------------------------------------------|
|------------------------------------------------------------------|
|---------------2-3-------------3-4-------------4-5----------------|
|-0----------------------------------------------------------------|
G2
|-----3---------------3---------------3---------------3------------|
|-----3---------------3---------------3---------------3------------|
|------------------------------------------------------------------|
|------------------------------------------------------------------|
|-7-------------2-3-------------3-4-------------4-5----------------|
|------------------------------------------------------------------|

Lead: Amott (+wah)
|------------------------------------------12-15-15b(17)---17b(19)---12---------------------|
|-5-----(5)/17-------15-13-12tr13------/15--------------------------------15-13-12h13p12-13-|
|-------------------------------------------------------------------------------------------|
|-------------------------------------------------------------------------------------------|
|-------------------------------------------------------------------------------------------|
|-------------------------------------------------------------------------------------------|
|-------------------------------------------------------------------------------------------|
|--------------------------------------------------------------12------12-14b(15)----12-----|
|-14-b(15)r(14)-12~~~------12----------------------------------12------12-14b(15)----12-----|
|--------------------12-14----14-1412~~~---------------------------14----------------------|
|----------------------------------------10-12-14-10~~~~~~~---------------------------------|
|----------------------------------------------------------0--------------------------------|
|-------------------------------------------------------------12-14-15-/19-17-15-------------|
|----------------------------------------------------12-14-15--------------------19-17-15-14-|
|-12-11h12p11-12-11-12-14-14b(16)--r(14)p12-14~~~~~~~----------------------------------------|
|--------------------------------------------------------------------------------------------|
|--------------------------------------------------------------------------------------------|
|--------------------------------------------------------------------------------------------|
|-------14-15-17-17-17h19p17---------14-15-17-17b(19)~~~~~~-22b(24)-22b(24)-22b(24)-22p19p17-19---22-19~~~-|
|-15-17----------------------17~~-17-----------------------------------------------------------------------|
|----------------------------------------------------------------------------------------------------------|
|----------------------------------------------------------------------------------------------------------|
|----------------------------------------------------------------------------------------------------------|
|----------------------------------------------------------------------------------------------------------|
pm
Repeat C, A w/A', C, D, E1
Outro
|------------------------------------------------------------------|
|-------------Ah--------------Ah--------------Ah----------6-4----7-|
|-------------7~--------------6~--------------5~------/8-------5-7-|
|-000000000000----000000000000----000000000000----0--------------5-|
| .
|
|-------------Ah--------------Ah--------------Ah-------------------|
|-------------9~--------------8~--------------7~----------8-6----7-|
|-----------------------------------------------------/10------7-7-|
|-000000000000----000000000000----000000000000----0--------------5-|
.
The End!
------------------------------------------------------
Lalith Vipulananthan ([email protected])




Ваше мнение



Капча