join the death/black metal tab mailing list by emailing


Blood Spattered Banner tabs

Blood Spattered Banner
(Tune down 2.5 steps to B)

Thanks to John for corrections to the intro bit.
Intro:
|--------------------|-----------------|--------------------|-----------------|
|--------------------|-----------------|--------------------|-----------------|
|--------------------|-----------------|--------------------|-----------------|
|---------------5----|-----------------|---------------5----|---------7-------|
|-2---2/4~~-------5--|-4---5---7-------|-2---2/4~~-------5--|-4---5---5-------|

|-0---------x-3------|-2---3---5-------|-0---------x-3------|-2---3-----------|

Rhy. Fig. 1
|----------------------|----------------------|----------------------|
|----------------------|----------------------|----------------------|
|----------------------|----------------------|----------------------|
|----------------------|-------------------2--|----------------------|
|--2h4-5p4-----2----2--|--2h4-5p4-----5----0--|--2h4-5p4-----2----2--|
|----------5p3-0----0--|----------5p3-3-------|----------5p3-0----0--|

* * (End Rhy. Fig. 1)
|----------------------|----------------------|--------------------------|
|----------------------|----------------------|--------------------------|
|----------------------|----------------------|--------------------------|
|----------------------|----------------------|-------------------2-/x--|
|--2h4-5p4-----5----5--|--2h4-5p4-----2----2--|--2h4-5p4-----5----0-/x--|
|----------5p3-3----2--|----------5p3-0----0--|----------5p3-3-----------|

|---------------------|--------------| (This last bit is similar to
|------3--------------|--------------| Child's Play, which features an
|--------0------------|--------------| Em7 Csus2 arpeggiation)
|---------------------|--------------|
|---------------5~----|-2------------|
|-3~~~-----/7~~----3~-|-0------------|

Verse w/Rhy Fig. 1... under *'s substitute rhythm fill: G5 B5 A5 D5




Ваше мнение



Капча