join the death/black tab mailing list my emailing
Arbeit Macht Fleisch

(Tune down 2.5 steps to B)

Thanks to Juha-Pekka Maanine for these!

-----------------------------------
-----------------------------------
-----------------------------------
--p-----------p-------------p------
-5-2---------5-2-----------5-2-----
-3-0-0-0-0-0-3-0-0-0-0-0-0-3-0-0-0-
. . . . . . . . . .

----------------------------------
----------------------------------
----------------------------------
----------p-----------------------
-2-------8-5---5-----6---x---3----
-0---0-0-----7---7-0-4---x---1----
. . . . . .

---------------------------------- ----------------------------------
---------------------------------- ----------------------------------
---------------------------------- ----------p-----------------------
----------p----------------------- --------10-7---7-----8-------8----
-2-------8-5---5-----6-------6---- 10-----------9---9---6-------6----
-0---0-0-----7---7-0-4---0-0-4---- -8---8-8-----------0-----0-0------
. . . . . . . . . . . . . . . .

---------------------------------- ----------------------------------
---------------------------------- ----------------------------------
---------------------------------- ----------------------------------
-9--------p----------------------- -------------------8-----6---8----
-7-------8-5---5-----6-------6---- -------------------6-----6---6----
-----0-0-----7---7-0-4---0-0-4---- -8-8-8-8-8-8-8-8-8----------------
. . . . . . . . . . . . . . . . .

faster...
---------------------------------- ----------------------------------
---------------------------------- ----------------------------------
---------------------------------- ----------------------------------
---------------------------------- ----------------------------------
-7-----7---------5---------------- -7-----8----------------------5-6-
---000---000-5-6---66666666666666- ---000---444444444444444445-6-----
... ... . . .............. ... .................. . . .

followed by chords: F#5 G5 A5 B5 G#5 A#5

gtr.1
-------------------------------------------------
-------------------------12----------------------
-----------------9-----9-----9-----9-------------
--------7-----7-----7-----------7-----7-----7----
-----5-----5-----------------------------5-----5-
--3----------------------------------------------
gtr.2
-------------------------------------------------
-------------------------19----------------------
----------------16----16----16----16-------------
-------14----14----14----------14----14----14----
----12----12----------------------------12----12-
-10----------------------------------------------

------------------------------------------------------------------------
------------------------------------------------------------------------
------------------------------------------------------------------------
-----9/11-9/1197-----9/11-------------9/11-9/1197-------------------
-----7/9--7/9-75-----7/9-8/1086-----7/9--7/9-75-------------------
-0000--------------0000----6/8-64-0000--------------7777666633330000--

2nd gtr. behind Amott's lead
--------------------------------
--------------------------------
--------------------------------
--------------------------------
-2-----------------6---x---3----
-0---0-0-0-0-0-0---4---x---1----
. . . . . .

--------------------------------- ---------------------------------
--------------------------------- ---------------------------------
--------------------------------- ---------------------------------
--s-----------s-----------s------ --p-----------p-----------p------
-8-7---------8-7---------8-7----- -5-2---------5-2---------5-2-----
-6-5-5-5-5-5-6-5-5-5-5-5-6-5-5-5- -3-0-0-0-0-0-3-0-0-0-0-0-3-0-0-0-
. . . . . . . . . . . . . . . . . . . .

--------------------------------- ---------------------------------
--------------------------------- ---------3---------------3-------
--------------------------------- ---0---------0-----0---------0---
--------------------------------- -----------------0---------------
-9-9-9-9-9-9-9-9-8-8-8-8-8-8-8-8- -3-------------------------------
-7-7-7-7-7-7-7-7-6-6-6-6-6-6-6-6- ---------------------------------
. . . . . . . . . . . . . . . .

--------------------------------- ---------0---------------0-------
--------------------------------- ---3---------------3-------------
--------------------------------- -------------4---------------4---
--------------------------------- -----------------0---------------
-9-9-9-9-9-9-9-9-8-8-8-8-8-8-8-8- -3-------------------------------
-7-7-7-7-7-7-7-7-6-6-6-6-6-6-6-6- ---------------------------------
. . . . . . . . . . . . . . . .




Ваше мнение



Капча