Cannibal Corpse - When Death Replaces Life (Other Riffs)
>From Gore Obsessed
Marino Manarin - e-mail: [email protected]
any corrections please mail me.
RIFF 1
--------------------------------------------------------------
--------------------------------------------------------------
--------------------------------------------------------------
---7......6.......6......-------------------------------------
--------------8..........8.......7......8.......7......-------
--------------------------------------------------------------
RIFF 2
-------------------------------------------------------------------------------------------
-------------------------------------------------------------------------------------------
-------------------------------------------------------------------------------------------
---7.......6.........6---------------------------------------------------------------------
---------------8...........8........7........8........7........7......---------------------
-----------------------------------------------------------9.......9......8......9.....8---
RIFF 3
-----------------------------------------------------------------------------------------------------------------------
-----------------------------------------------------------------------------------------------------------------------
-----------------------------------------------------------------------------------------------------------------------
---7------6-------------6----------------------------------------------------------------------------------------------
------------------8-----------8---------7-------8--------7-------------7-----------------------------------------------
-------0------0-------0----0------0---------0--------0-------0---9---0----0--9----0----8----0---9---0---8---0---5---8--

RIFF 4 (2x)
-----------------------------------------------
-----------------------------------------------
-----------------------------------------------
--------------------7p4h5h4--------------------
-----------7p4h5h4------------7p4h5h4----------
--7p1h2h1--------------------------------------

RIFF 5
-----------------------------------------------------------------------------------------------
-----------------------------------------------------------------------------------------------
-----------------------------------------------------------------------------------------------
2x--------------------7p4h5h4----------2x--------------------------17p11h12h11-----------------
-----------7p4h5h4------------7p4h5h4-----------------17p11h12h11---------------17p11h12h11----
--7p1h2h1--------------------------------17p11h12h11-------------------------------------------




Ваше мнение



Капча