Band: Cannibal Corpse
Song: Vomit The Soul
Tabbed By: JEB/,
tune down 1/2 step
intro (riff 1)
|------------------------------------|
|------------------------------------|
|------------------------------------|
|------------------2---------2-------|
|--5---6--3----5--2-----5--2-------|
|--3---4--1----3---0-0-3---0-0---|
riff 2
|---------------------------------------------------------|
|---------------------------------------------------------|
|---------------------------------------------------------|
|------2---------2---------2------^----^------------------|
|--5--2-----5--2-----5--2-----3-4--2-3-----------------|
|--3---0-0-3---0-0-3---0-0--------------------------|
riff 3
|--------------------------------------------------------------|
|--------------------------------------------------------------|
|--------h--------------h--------------h-----------------------|
|-------2-3--h---------2-3--h---------2-3--h-------------------|
|-/5--------3-4--/5--------3-4--/5--------3-4--/5--------------|
|-/3-0-----------/3-0-----------/3-0-----------/3--000-000-000-|
riff 4
|----------------------------------------------|
|----------------------------------------------|
|----------------------------------------------|
|----------------------------------------------|
|-5---------5---------7---------6----------|
|-3-0-1-2-0-3-0-1-2-0-5-0-3-4-0-4--0-2-3-0-|
. . . . . . . . . . . . . . . .
riff 5
|---------------------------------------------------------|
|---------------------------------------------------------|
|---------------------------------------------------------|
|---------------------------------------------------------|
|-5--------6--------------5/6---------4/5---------------|
|-3-0-0-0-4-0-0-0-4-5-0-3/4-0-3-4-0-2/3---------------|
. . . . . . . . . . . . . . .
riff 6
|---------------------------------------------------------|
|---------------------------------------------------------|
|---------------------------------------------------------|
|---------------------------------------------------------|
|---------------------------------------------------------|
|-(6)-(3)-(4)-(2)-(5)-(4)-(3)-(2)-------------------------|




Ваше мнение



Капча